Brides Of Destruction - I Dont Care Chords & Tabs

 

I Dont Care Chords & Tabs

Brides Of Destruction Chords & Tabs

Version: 1 Type: Tab 0 ratings
1 star 2 stars 3 stars 4 stars 5 stars
comments

I Dont Care Tab

band- brides of destruction
guitarist- tracii gunns
album- here come the brides
song- i dont care
track- 2

standard tunning EADGBe
   main riff                                      guitar 2   let ring
e -------------------------------------------)-------------------------|
B -------------------------------------------)-------------------------|
G -------------------------------------------)------2^^^---------------|
D --77777--5-----------33333-56-5--3h5--7p5-5)------2^^^---------------|
A --55555--3--5555--3--11111-34-3--1h3--5p3-3)------0^^^---------------|
E ------------3333--1------------------------)-------------------------|
verse
e----------------)-----------------------------------------------------|
B----------------)-----------------------------------------------------|
G----------------)-----------------------------------------------------|
D----------------)------------5h7-777-5h7-777--------------------------|
A-5555--3333-----)------------3h5-555-3h5-555--55555--333333-----------|
E-3333--1111-----)-----------------------------33333--111111-----------|
[ Tab from: http://www.guitartabs.cc/tabs/b/brides_of_destruction/i_dont_care_tab.html ]
after chorus 2
e-----------------------------------------------------------------|
B-----------------------------------------------------------------|
G-----------------------------------------------------------------|
D-----------------------------------------------------------------|
A-3333-3333------------------------3333333------------------------|
E-1111-1111-repeat a couple times--1111111------------------------|
  pm*****************************

bridge
e-----------p-s-)----------------------------------------------------|
B-----------i-l-)----------------------------------------------------|
G--3---3----c-i-)--8h10101010101010-------------------8--7--6--5-----|
D--3-3-3-3--k-d-)-------------------8h10101010101010-8--7--6--5------|
A--1-3-1-3----e-)----------------------------------------------------|
E----1---1------)----------------------------------------------------|
end of the main riff on the intro and the ending chorus
e-------------------------------------------------------------------|
B-------------------------------------------------------------------|
G-------------------------------------------------------------------|
D-------------------------------------------------------------------|
A-56-5--78-7--910-9-910-9-910-9-------------------------------------|
E-34-3--56-5--7-8-7-7-8-7-7-8-7-------------------------------------|
end on
e-------------------------------------------------)
B-------------------------------------------------)
G-------------------------------------------------)
D-------------------------------------------------)--let ring--
A-2^^^^^^-----------------------------------------)
E-0^^^^^^-----------------------------------------)
Comments