Brides Of Destruction - Brace Yourself Chords & Tabs

 

Brace Yourself Chords & Tabs

Brides Of Destruction Chords & Tabs

Version: 3 Type: Tab 0 ratings
1 star 2 stars 3 stars 4 stars 5 stars
comments

Brace Yourself Tab

   
-----------------------------------------------------------------------------
			     SONG NAME - Brace Yourself
                                    BY - Brides of Destruction
-----------------------------------------------------------------------------
Tabbed by: Joshua Dinwiddie a.k.a crueddude
Email: crueddude@yahoo.com
Tuning:Standard

Intro:
e|----------|---------|---------|---------|---------|-----------------------|
B|----------|---------|---------|---------|---------|-----------------------|
G|----------|---------|---------|---------|---------|-----------------------|
D|--4-4\5-4-|--4-4\5-4|--4-4\5-4|--4-4\5-4|--4-4\5-4|-----------------------|
A|2---------|5--------|4--------|3--------|2--------|-----------------------|
E|----------|---------|---------|---------|---------|-----------------------|
     *2         *2                            *2

When distortion kicks in:
e|-----------|-----------|-----------|--------------------------------------|
B|-----------|-----------|-----------|--------------------------------------|
G|-----------|-----------|-----------|-----------7h9-9h7--------------------|
D|7-7--------|9-9--------|7-7--------|6-6-----7h9---------9h7---------------|
A|7-7--7-8-7~|9-9--7-8-7~|7-7--7-8-7~|6-6-7h9-----------------9h7-7h8p7-----|
E|5-5--------|7-7--------|5-5--------|4-4-----------------------------------|
     *2         *2             *2

"Breathe, don't hold your breath":
e|-------------------|-------------------|-------------------|--------------|
B|-------------------|-------------------|-------------------|-----8--------|
G|-------------------|-------------------|-------------------|-----8--------|
D|--4---4---4---4---4|--4---4---6---4---4|--4-4\5-4---4-4\5-4|5-5--8--------|
A|2---5---4---3---2--|2---5---4---3---2--|2---------5--------|5-5-----------|
E|-------------------|-------------------|-------------------|5-5-----------|
                                                                   *4

These are the high pitched strings you here at about 2:29 into the song and while they
are singing, in soft voices, "So brace yourself, So brace yourself, There's no one else,
So brace yourself, There's no one else.":
[ Tab from: http://www.guitartabs.cc/tabs/b/brides_of_destruction/brace_yourself_tab_ver_3.html ]
(Do the first two sections twice and then go on and do the last 2 sections.)
e|-------------|-----------------------|------|-----------------------------|
B|0---0---0----|0---0---0---0---0------|0--0--|0----------------------------|
G|19--17--15-12|19--17--15--17--15-12--|17-15-|17---------------------------|
D|-----------12|-------------------12--|------|-----------------------------|
A|-----------0-|-------------------0---|------|-----------------------------|
E|-------------|-----------------------|------|-----------------------------|
      *4                                  *3

Right after that do this:
e|--------------------------------------------------------------------------|
B|--------------------------------------------------------------------------|
G|--------------------------------------------------------------------------|
D|7-7-3-2-3-2-7-7-3-2-3-5~-7-7-3-2-3-2--------------------------------------|
A|7-7---------7-7----------7-7----------------------------------------------|
E|5-5---------5-5----------5-5----------------------------------------------|


Outro that starts at about 3:40:
e|---|---|---|---|----------------------------------------------------------|
B|---|---|---|---|----------------------------------------------------------|
G|---|---|---|---|----------------------------------------------------------|
D|8--|7--|5--|3--|4---------------------------------------------------------|
A|8--|7--|5--|3--|4---------------------------------------------------------|
E|6--|5--|3--|1--|2---------------------------------------------------------|
  *9  *9  *9  *9  Let ring

This is the second part to the Outro:
e|--------------------------------------------------------------------------|
B|--------------------------------------------------------------------------|
G|--------------------------------------------------------------------------|
D|7-7--5-5--3-3--3-3--------------------------------------------------------|
A|7-7--5-5--3-3--3-3--------------------------------------------------------|
E|5-5--3-3--1-1--1-1--------------------------------------------------------|

| /  slide up
| \  slide down
| h  hammer-on
| p  pull-off
| ~  vibrato
| +  harmonic
| x  Mute note
=============================================================================
Comments