Brides Of Destruction - Brace Yourself Chords & Tabs

 

Brace Yourself Chords & Tabs

Brides Of Destruction Chords & Tabs

Version: 1 Type: Tab 0 ratings
1 star 2 stars 3 stars 4 stars 5 stars
comments

Brace Yourself Tab

hey. this is only a little part of the song cuz i can't be bothered to figure oout the 
this helps and you can build on it too!
[ Tab from: http://www.guitartabs.cc/tabs/b/brides_of_destruction/brace_yourself_tab.html ]
e|---------------------------------------------------------------------|
b|---------------------------------------------------------------------|
g|---------------------------------------------------------------------|
d|77-7-----------77-7-----------1010-10-----------1010-10--------------|
a|77-7---7-8-7---77-7---7-8-7---1010-10---7-8-7---1010-10----7-8-7-----|
e|55-5-----------55-5------------8-8--8------------8-8--8--------------|

e|--------------------------------------|
b|--------------------------------------|
g|--------------------------------------|
d|99-9----------------------------------|
a|99-9---7-8-7--------------------------|
e|77-7----------------------------------|


ok so thats it for now.....if i get the rest ill post it to ya...bye!!

p.s. Tabbed by Crow Bird Lintu Anna!!
Comments