Brian Setzer Orchestra - Jump Jive And Wail Chords & Tabs

 

Jump Jive And Wail Chords & Tabs

Brian Setzer Orchestra Chords & Tabs

Version: 3 Type: Bass Tab 0 ratings
1 star 2 stars 3 stars 4 stars 5 stars
comments

Jump Jive And Wail Bass Tab

TABBED BY MISFIT666(NIGEL)
BAND-BRIAN SETZER ORCHRASTRA
SONG- JUMP JIVE AND WAIL

INTRO PLAY 2X
G--------------------------------------------------|
D----------------------------------0-3-5-6-5-3-1---|
A--0-3-5-6-5-3-1---0-3-5-6-5-3-1-1-----------------|
E-1--------------1---------------------------------|


CHORUS PLAY 6X
G-------------------------------------|
D-------------------------------------|
A-----0-0-3-3-5-5-6-6-5-5-3-3-1-1-----|
E-1-1-----------------------------1-1-|
[ Tab from: http://www.guitartabs.cc/tabs/b/brian_setzer_orchestra/jump_jive_and_wail_btab_ver_3.html ]
G--------------------------------------------------------------|
D----------------------------------0-0-3-3-5-5-6-6-5-5-3-3-1-1-|
A------0-0-3-3-5-5-6-6-5-5-3-3-1-1-----------------------------|
E-1-1----------------------------------------------------------|

OUTRO PLAY 2X
G--------------------------------------------------|
D-----------------------------------0-3-5-6-5-3-1--|
A---0-3-5-6-5-3-1---0-3-5-6-5-3-1-1----------------|
E-1---------------1--------------------------------|


Brian Setzer was the guitarist from the Band The Stray Cats in the 80's
He is an amasing guitarist. this is the bass line from is new band.
Comments