Brian Setzer Orchestra - Jump Jive And Wail Chords & Tabs

 

Jump Jive And Wail Chords & Tabs

Brian Setzer Orchestra Chords & Tabs

Version: 1 Type: Bass Tab 0 ratings
1 star 2 stars 3 stars 4 stars 5 stars
comments

Jump Jive And Wail Bass Tab

  BTAB: Jump Jive and Wail
Artist: Brian Setzer Orchestra
 Album: The Dirty Boogie
Author: Rattman (jratt0@hotmail.com)

**Padrino's Bass Tab Exclusive!**

Main Riff (Verse/Chorus/Sax Solo/Guitar Solo):

G-----------------------------------0-3-5-6-5-3-1-----------------
D---0-3-5-6-5-3-1---0-3-5-6-5-3-1-1-----------------0-3-5-6-5-3-1-
A-1---------------1-------------------------------1---------------
E-----------------------------------------------------------------
[ Tab from: http://www.guitartabs.cc/tabs/b/brian_setzer_orchestra/jump_jive_and_wail_btab.html ]
G----------------------------------
D--------------------0-3-5-6-5-3-1-
A---3-6-8-9-8-6-4--1---------------
E-4--------------------------------

"jack and jill..." (it changes just sligtly here, you can hardly hear the change):

G-----------------------------------1-4-6-7-6-4-2----------------
D---1-4-6-7-6-4-2---1-4-6-7-6-4-2-2------------------1-4-6-4-2-x-
A-2---------------2--------------------------------2-------------
E----------------------------------------------------------------


Taken from Padrino's Bass Tab Archive: http://members.xoom.com/jszalma/

Comments