Brian Mcknight - One Last Cry Chords & Tabs

 

One Last Cry Chords & Tabs

Brian Mcknight Chords & Tabs

Version: 1 Type: Tab 0 ratings
1 star 2 stars 3 stars 4 stars 5 stars
comments

One Last Cry Tab

ONE LAST CRY (as performed on Music in High Places) 
by Brian McKnight

Tabbed by Euroy Tan
Please send questions and/or comments: roypatrickt@hotmail.com


INTRO

|-------------0--------0-----------0----------0---------4h7p4---|
|-----------4----------2---------0----------0---------5---------|
|---------1----------2---------4----------4---------4-----------|
|-------4----------2---------4----------4---------4-------------|
|-----2-------------------------------0---------4---------------|
|---0------------2---------4------------------------------------|


|-----------0-----------3---------------------2-----2-2---|
|---------0-----------3------------------2------2-----2---|
|-------4-----------2----------2-------2----------2-------|
|-----4-----------2----------2-------2--------------------|
|---------------3----------3-------2----------------------|
|---4-----------------------------------------------------|



VERSE

|------------0----------0------------0---------------0---|
|----------4----------2------------0---0-----------0-----|
|--------1----------2------------4-------4-------2-------|
|------4----------2------------4---------------2---------|
|----2---------------------------------------0-----------|
|--0------------2------------4---------------------------|
   My...        dreams...		     mending...    


|------------0-----------0----------------0-------------0---|
|----------4-----------2----------------0---------------2---|
|--------1-----------2----------------4-----------------2---|
|------4-----------2----------------4-------------------2---|
|----2-----------------------------------------------2------|
|--0------------2-----------------4---------------------2---|
   	 I saw you     holdin hands     standing     someone...


|------------0----------0------------0----------------------|
|----------4----------2------------0-------7----------------|
|--------1----------2------------4---------6-----------4----|
|------4----------2------------4---------------------4------|
|----2-------------------------------------6----------------|
|--0------------2------------4---------------------4--------|
         Now I sit       all alone...      all my feelings...


|-------------4h7p4--------------4\-------------------------|
|---------5--------5h7p5-----------------------1--1h3p1-----|
|-------4---------------4h6p4----4\----------2--------------|
|-----4-----6-----------------6------------2----------------|
|---4-------------------------------------------------------|
|----------------------------------------2------------------|
   gone...			 try...  over  you...    


|----------2-----2-----2---|
|--------2-----2-----2-----|
|------2-----2-----2-------|
|----2---------------------|
|--2-----------------------|
|--------------------------|
  to do...




CHORUS

|--------------0-----------5h8p5------------------------------|
|------------4-----------5---------------4------------4h5p4---|
|----------1-----------4---------------4------------4---------|
|--------4-----------4---------------4------------4-----------|
|------2-----------4---------------0--------------------------|
|----0------------------------------------------4-------------|
   cry...	  cry...	   leave...behind...


|--------------------------------------------4h7p4-----------2---|
|--------------------4-------------------------------------2-----|
|-------6-------6----4----------2--------4---------------2-------|
|-----6-------5------4--------4--------4---6-----------2---------|
|---------------------------3--------4---------------------------|
|---6-------5--------4-------------------------------2-----------|
    put you out...   mind this     time...	     lie...


|-----------------------2-------------0--------0-------0-------------5---|
|---------2-----------2-------------0----------------0-------------2-----|
|-------2-----------2-------------2---------2------------2-------2-------|
|-----2-----------2-------------4---------4--------4-----------2---------|
|---------------2-------------3---------3--------3-----------2-----------|
|---2-----------------------0--------------------------------------------|
   guess I'm down...	   cry...				     mmm...




REPEAT VERSE




REPEAT CHORUS UNTIL "stop livin a lie..." THEN PLAY THIS
[ Tab from: http://www.guitartabs.cc/tabs/b/brian_mcknight/one_last_cry_tab.html ]
|-----2--4--4\6------------------------------------------------------------|
|-----------------------2h3p2-----------4h5p4-----------5---------7h10p7---|
|-----3--4--4\6-------2---------------4---------------5---------7----------|
|-------------------2---------2-----4---------4-----5---------7------------|
|--------------------------------------------------------------------------|
|-----------------2---------------4---------------5---------7--------------|
   lie..	  I know...	strong...	  round...  on and on...


|------------3----------3-------------3-------------|
|------------3--------3-------------3---------------|
|----------2--------2-----2-------5-----------------|
|--------2--------2-------------5-------------------|
|------3--------3-------------3---------------------|
|---------------------------------------------------|
  and on...		  and oooooooooooooooooon...    




INSTRUMENTAL/SOLO

|-------------------------------------------------------------|
|-----------1h3p1----------3h4p3----------5h6p5-5---------8---|
|---------2-------2------3-------3------5-------5-------7-----|
|-------2--------------3--------------5---------------7-------|
|---------------------------------------------------7---------|
|-----1--------------3--------------5-------------------------|
  and on...


|-----------------------5h8p5----------------|
|---------5---------6--------6h8p6-----------|
|-------5---------5---------------5h7p5------|
|-----5---------5-----7-----------------7----|
|-------------5------------------------------|
|---5----------------------------------------|




VERSE 2 CONTINUED AFTER INSTRUMENTAL
						 riff 1 (3X)  riff 2 (3X)
|---5\---------------------------------------3--|--------3---|------3---|
|---------------3h4p3--------3-------------3----|------3-----|----3-----|
|---5\--------3------------3-------------3------|----3-------|--3-------|
|-----------3------------3-------------3--------|--3---------|----------|
|------------------------------------3----------|------------|----------|
|---------3------------3------------------------|------------|----------|
    I'm...dry...	     after I have myyyyyyyyyyyyyyyyyyyyyyyyyy




END CHORUS

|---------5------------3---------------1---------------|
|---------6-----3------4-------------1-------------6---|
|---3-----5-----3------3---2-------0-------------5-----|
|---5-----5-----3------5---1-----0-------------5-------|
|---4-----5------------3-------1-----------------------|
|---------------3----------1-----------------5---------|
    one...cry...one...cry...   leave...  behind       


|---5--------------------------------5-----------3---|
|---7-----6-----5----------------6-------------3-----|
|---7-----6-----5----3---------5-------------3-------|
|---7-----6-----5----5-------5-----7-------3---------|
|--------------------4-----5-------------------------|
|---7-----6-----5------------------------3-----------|
    put...out...mind...time...	       lie...


|----------------3--------------------------
|---------3hp4---3---3---------4----------4-
|-------3--------3---3-------5----------5---
|-----3----------3---3-----5----------5-----
|----------------3---1--------------5-------
|---3--------------------5------------------
  I guess...  down...  I guess...down       


|-----------------------------3------------------|
|--------2---------2--------3--------------------|
|------3---------3--------3-----(rpt riffs 1&2)--|
|----3---------3--------3------------------------|
|---------------------3--------------------------|
|--3---------3-----------------------------------|
   I guess I'm doooooooooooooooooooooooooown


|-------------------------5h8p5----------4----------3--------------------|
|----------1h3p3-----------------------4----------3----------1-1h3-3-3---|
|--------2-------2------5------------6----------3----------2-------------|
|------2--------------5------------6----------3----------2---------------|
|-------------------5------------4----------3----------------------------|
|----1-------------------------------------------------1-----------------|
   cry...					       mmm...


ENJOY!

NOTE: 	The second verse and chorus have subtle differences in Brian's arpeggio
playing, but otherwise you can just play it the same way as the verse and chorus.
Sorry, there's just too much to write out.
Comments