Brian May - Why Dont We Try Again Chords & Tabs

 

Why Dont We Try Again Chords & Tabs

Brian May Chords & Tabs

Version: 1 Type: Tab 0 ratings
1 star 2 stars 3 stars 4 stars 5 stars
comments

Why Dont We Try Again Tab

ARTIST: Brian May
TITLE: Why Don't We Try Again
ALBUM: Another World
TABBED BY: Martin Kelly

INTRO

E----5--------------14-15-14--------------------------------------------------------------
B--3-------------15-----------------------------------------------------------------------
G-----------------------------------------------------------------------------------------
D-----------------------------------------------------------------------------------------
A-----------------------------------------------------------------------------------------
E-----------------------------------------------------------------------------------------

Centre          Left


CHORUS

E--2------------2-----------2---3---------------------------------------------------------
B--3----2---2---3---2---2---3---3---------------------------------------------------------
G--2----2---2---2---2---2---2---2---------------------------------------------------------
D--0----2---2---0---2---2---0---0----------------------------------------------------------
A-------0---0-------0---0-----------------------------------------------------------------
E-----------------------------------------------------------------------------------------

VERSE 2

E-----14-15-14----------------------17-17-17---------------------17--------13-------------
B--15-----------------3----------15-------------------------------------------------------
G-----------------------------------------------------------------------------------------
D-----------------------------------------------------------------------------------------
A-----------------------------------------------------------------------------------------
E-----------------------------------------------------------------------------------------

                                                                            Left
[ Tab from: http://www.guitartabs.cc/tabs/b/brian_may/why_dont_we_try_again_tab.html ]
E--15-17----------------------------------------------------------------------------------
B-----------------------------------------------------------------------------------------
G-----------------------------------------------------------------------------------------
D-----------------------------------------------------------------------------------------
A-----------------------------------------------------------------------------------------
E-----------------------------------------------------------------------------------------

   Centre

CHORUS 2

This is the second guitar

E--3-----2-0-2-----3-5-------7---8--7--5--------------------------------------------------
B-----------------------------------------------------------------------------------------
G-----------------------------------------------------------------------------------------
D-----------------------------------------------------------------------------------------
A-----------------------------------------------------------------------------------------
E-----------------------------------------------------------------------------------------

SOLO

E-----5-------6-8-8-7-6-5-5---------17-------22----24[25]-24--22--------3-5--5------------
B--3-------3---------------------15-----15/--------------------------3--------------------
G-----------------------------------------------------------------------------------------
D-----------------------------------------------------------------------------------------
A-----------------------------------------------------------------------------------------
E-----------------------------------------------------------------------------------------

CHORUS 3

E--14----14-15------14-15-14-15-14-14-16--------------------------------------------------
B-----15-------15-------------------------------------------------------------------------
G-----------------------------------------------------------------------------------------
D-----------------------------------------------------------------------------------------
A-----------------------------------------------------------------------------------------
E-----------------------------------------------------------------------------------------

ENDING

E----------14-15-17-15-----------17------------2-------1--3----2--------------------------
B-------15-------------15------------------------3-----3--3----3--------------------------
G--------------------------------------------------2---2--2----2--------------------------
D------------------------------------------------------0--0----0--------------------------
A-----------------------------------------------------------------------------------------
E-----------------------------------------------------------------------------------------


For a list of easy tabs contact martin.n.kelly@ntlworld.com
Comments