Brian May - Too Much Love Will Kill You Chords & Tabs

 

Too Much Love Will Kill You Chords & Tabs

Brian May Chords & Tabs

Version: 1 Type: Tab 0 ratings
1 star 2 stars 3 stars 4 stars 5 stars
comments

Too Much Love Will Kill You Tab

Too Much Love Will Kill You
Words and music by Brian May, Frank Musker, Elizabeth Lamers
 
e-----7--8--10--|--------------------|---------------------|
B---------------|--8--------5--7--8--|---------------------|
G---------------|--------------------|--7---------9-7-5-4--|
D---------------|--------------------|---------------------|
A---------------|--------------------|---------------------|
E---------------|--------------------|---------------------| 
e-------------------7-8^(10)-8-|-7----------------------------|
B-----------------8------------|----10-10--X-8-8--7-7---5-7-5-|
G--5----------7-7--------------|------------------------------|
D------7-5-7-------------------|------------------------------|
A------------------------------|------------------------------|
E------------------------------|------------------------------|
[ Tab from: http://www.guitartabs.cc/tabs/b/brian_may/too_much_love_will_kill_you_tab.html ]
e---------------------------|--------------------|--------10^(12)-10-8-7-|
B-------------8-10^(12)--10-|-8-------8-7----7-8-|-----------------------|
G-7---------7---------------|-------9------------|-9---------------------|
D---------9-----------------|-----9--------9-----|-----------------------|
A---------------------------|--------------------|-----------------------|
E---------------------------|--------------------|-----------------------|

e------7-----------15^(17)-(17)-|
B-10-----10-8-7-----------------|
G---------------9---------------|
D-------------------------------|
A-------------------------------|
E-------------------------------|

e-17-17^(19)-17-15--14-15--------------------------|
B-------------------------17--10^(12)-10^(12)-10-8-|
G--------------------------------------------------|
D--------------------------------------------------|
A--------------------------------------------------|
E--------------------------------------------------|

e------------10-14-10-------12-8-------|-10-8------------------------------|---
B-10-------10---------10---------10----|------8-10-8-7---------------------|---
G--------11--------------11---------11-|---------------7-7-9-7---7-9-7-----|---
D------12------------------------------|-----------------------9-------9-7-|-9-
A--------------------------------------|-----------------------------------|---
E--------------------------------------|-----------------------------------|---
Comments