Brian May - Back To The Light Chords & Tabs

 

Back To The Light Chords & Tabs

Brian May Chords & Tabs

Version: 1 Type: Tab 0 ratings
1 star 2 stars 3 stars 4 stars 5 stars
comments

Back To The Light Tab

   
Back To The Light  Brain May 1992
Chords C F Am G C (G)

Solo 1
|--------------------------------------------8-8-8p7--------------------------------------------|
|-------------------------------10-10-10p8-----------10p8-10p8----------------------------------|
|------------------------------------------9-------------------9p7-7p5--------------------------|
|--10--------10----10-10h12-10-----------------------------------------7p5-7p5------------------|
|------10h12----12-------------------------------------------------------------7p5-5-5h7-3/10/3-|
|-----------------------------------------------------------------------------------------------|

|--12-12-12-----------12----13-12-------------15b17-15p12---------------------------------------|
|---------------13-15----13-------15-13-15----------------15p13---------------------------------|
|-----------12-----------------------------14-------------------14p12---------------------------|
|---------------------------------------------------------------------14p12-10------------------|
|------------------------------------------------------------------------------12---------------|
|-----------------------------------------------------------------------------------------------|

|--------12-12-12b14-12-----------------------------10-9-10-12-------------------12b14-12-------|
|--13-15----------------15--------------12-10-12-13------------------------12-14----------------|
|---------------------------12-11-12-14------------------------12-11-12-14----------------------|
|-----------------------------------------------------------------------------------------------|
|-----------------------------------------------------------------------------------------------|
|-----------------------------------------------------------------------------------------------|

Solo 2
|-----------------------------------------------------------------------------------------------|
|-----------------------------------------------------------------------------------------------|
|---5-2-5--5-4-2-------------------------------------------5-----5-5-5-5-4----------------------|
|----------------5---------------------------------------------------------7p5-------10-12--10--|
|-3----------------5p3-5p3--------------3-5bp3-5-3-----3-3---3-3---------------8--12------10----|
|--------------------------5-5-4-3--3h5------------5-3------------------------------------------|
[ Tab from: http://www.guitartabs.cc/tabs/b/brian_may/back_to_the_light_tab.html ]
|-----------------------------------------------------------------------------------------------|
|-----------------------------------------------------------------------------------------------|
|--------14-12----12h14-14-12h14-14--------------------------------------------14-12------------|
|--12b14-------14-------------------12p10-12p10-12p10----------------10--12/14-------14-12/14-14|
|-----------------------------------------------------12p10-10-10h12----------------------------|
|-----------------------------------------------------------------------------------------------|

|---------------------------------------------------12-13---------------------------------------|
|--13p10-13p10--------------------------------13-15----------14-12----------12-14---------------|
|--------------12p9-12p9-12p9-----------------------------14-------14-12-10-------14-12-10------|
|-----------------------------12p10-10--12b14---------------------------------------------------|
|-----------------------------------------------------------------------------------------------|
|-----------------------------------------------------------------------------------------------|

|--------------------------------------------------------------------------12-12----12-12p10----|
|--------------------------------------------------------------------13h15-------------------10-|
|-14-14-12-----------------------------------------------------12h14-------------12-------------|
|----------14-12-10-12p10-12p10-10-12-10-------------10--10h12----------------------------------|
|----------------------------------------12-10-10h12--------------------------------------------|
|-----------------------------------------------------------------------------------------------|

|--17-17p15----17-15-13-12---------------------------------------------15-----15-----15-----15--|
|-----------18-------------15-13-15b17-15b17-15p13-1515b17-13-----16b17--16b17--16b17--16b17----|
|-----------------------------------------------------------------------------------------------|
|-----------------------------------------------------------------------------------------------|
|-----------------------------------------------------------------------------------------------|
|-----------------------------------------------------------------------------------------------|

|--17-17p15-----19b21-------------------------------------------|
|----------------------15b17-15p13------------------------------|
|-----------17---------------------14-12------------------------|
|----------------------------------------10-10------12b14-12b14-|
|---------------------------------------------------------------|
|---------------------------------------------------------------|

Transcripted By Chris Joyce 2001
E-mail me for any improvements.  chrisjoyceuk@yahoo.co.uk
Comments