Brian Jonestown Massacre - Servo Chords & Tabs

 

Servo Chords & Tabs

Brian Jonestown Massacre Chords & Tabs

Version: 1 Type: Tab 0 ratings
1 star 2 stars 3 stars 4 stars 5 stars
comments

Servo Tab

   
-------------------------------------------------------------------------------
			    Servo - Brian Jonestown Massacre
------------------------------------------------------------------------------
Tabbed by:Allan Feeney
Email:hockey_jock22@hotmail.com
[ Tab from: http://www.guitartabs.cc/tabs/b/brian_jonestown_massacre/servo_tab.html ]
Tuning:eadgbe
      a    c        d     a        Repeat
e|----------2--------:---------------------------------------------------------------|
B|--2---1---3--2-----:---------------------------------------------------------------|
G|--2---0---2--2-----:---------------------------------------------------------------|
D|--2---2---0--2-----:----------------57575------------------------5757--------------|
A|--0---3------0-----:----------------------75h7 0----3-35p3--355/7------------------|
E|-------------------:-----------------------------535-5-----5-----------------------|

Riff Placed loosely , solo based around riff


| /slide up
| \  slide down
| h  hammer-on
| p  pull-off
| ~  vibrato
| +  harmonic
| x  Mute note
===============================================================================
Comments