Brian Jonestown Massacre - No Come Down Chords & Tabs

 

No Come Down Chords & Tabs

Brian Jonestown Massacre Chords & Tabs

Version: 1 Type: Tab 0 ratings
1 star 2 stars 3 stars 4 stars 5 stars
comments

No Come Down Tab

   
----------------------------------------------------------------------------	          
NO COME DOWN - Brian Jonestown Massacre
----------------------------------------------------------------------------

Tabbed by: T.J.
...Off one of their 3 1996 albums, 'Their Satanic Majesties Second Request'

Tuning: Standard (EADGBE)

Verses:
     A     G     E        *fill*
e|---5-----3-----0---0-------------------|
B|---5-----3-----0---0-------------------|
G|---6-----4-----1---1-------------------|
D|---7-----5-----2---2---------5---------|
A|---7-----5-----2---2----5h7------------|
E|---5-----3-----0---0-------------------|
[ Tab from: http://www.guitartabs.cc/tabs/b/brian_jonestown_massacre/no_come_down_tab.html ]
ie. 
     A   G  E      *fill*        A   G  E    *fill*
I've waited for the come-down to put me in my place

etc...

Chorus: (chords playing over the lead on acoustic)
    E     E7      E    E7     A     A7      A     A7
e|-------------------------|-----------------------------|
B|-------------------------|-----------------------------|
G|-------------------------|--------2--0~---------0~-----|
D|--------2--0~--------0~--|-----2----------0h2----------|
A|-----2---------0h2-------|--0--------------------------|
E|--0----------------------|-----------------------------|

| ~  let ring

enjoy!
Comments