Brian Jonestown Massacre - Nevertheless Chords & Tabs

 

Nevertheless Chords & Tabs

Brian Jonestown Massacre Chords & Tabs

Version: 1 Type: Tab 0 ratings
1 star 2 stars 3 stars 4 stars 5 stars
comments

Nevertheless Tab

   
NEVERTHELESS
-BY THE BRIAN JONESTOWN MASSACRE

tab submitted by Kevan Williums


intro:

E    C    G


verses (guitar 1- strum, guitar 2- upstroke twice on every chord, listen for timing):


Em                         C               G                D
three words you have spoken....................
dont   make    me    a  fool................

chorus (same as intro):

E      C       G
to tear you apart..

solo thingie:
[ Tab from: http://www.guitartabs.cc/tabs/b/brian_jonestown_massacre/nevertheless_tab.html ]
e----------------------------------------------------------------------------|
b----------------------------------------------------------------------------|
g----------------------------------------------------------------------------|
d----------------------------------------------------------------------------|
a--2---2---------------------2-3-2---2-2---------------------------2---------|
E--------3----3-3/5-5--5-5---------------3---3-3/5-5--5-5--3-2-0-----3-3-3/5-|

e---------------------------------2-2-2-2--2-2-2-2-------------------|
b---------------------------------3-3-3-3--3-3-3-3--2-2-2-2--2-2-2-2-|
g---------------------------------2-2-2-2--2-2-2-2--2-2-2-2--2-2-2-2-|
d------------------2--------------------------------2-2-2-2--2-2-2-2-|
a---------2-3-2--2---2--3--------------------------------------------|
E--5--5-5------------------------------------------------------------|


Brian jonestown massacre is the greatest!!!
they need to have more BJM songs on this site!!!
Comments