Brian Jonestown Massacre - Miss June 75 Chords & Tabs

 

Miss June 75 Chords & Tabs

Brian Jonestown Massacre Chords & Tabs

Version: 1 Type: Tab 0 ratings
1 star 2 stars 3 stars 4 stars 5 stars
comments

Miss June 75 Tab

   
song: Miss June '75
artist: Brian Jonestown Massacre
Album: Their Satanic Majesties Second Request

this song proves that a song does not have to be complex for it be be a ABSOLUTELY GREAT SONG!!!!
[ Tab from: http://www.guitartabs.cc/tabs/b/brian_jonestown_massacre/miss_june_75_tab.html ]
(Guitar 1):
  F#                     E            B
e-----------------------------------------7---------7--|
b----------------------------0----0-------7---------7--|
g--3---3--3-3-3--3-3-3---1---1--1-1---8---8-----8---8--|  (repeat whole song)
d--4---4--4-4-4--4-4-4---2---2--2-2---9---9-----9---9--|
a--4---4--4-4-4--4-4-4---2---2--2-2---9---9-----9---9--|
E--2---2--2-2-2--2-2-2---0---0--0-0---7---7-----7---7--|


(Guitar 2 riff or bassline):
  F#                    E             B
e------------------------------------------------------|
b------------------------------------------------------|
g------------------------------------------------------|
d------------------------------------------------------|
a------------------------------------------------------|
E--2--------------2h4---0-------------7---7---------7--|


tabbed by: Keven Williums
Comments