Brian Jonestown Massacre - Anemone Chords & Tabs

 

Anemone Chords & Tabs

Brian Jonestown Massacre Chords & Tabs

Version: 1 Type: Tab 0 ratings
1 star 2 stars 3 stars 4 stars 5 stars
comments

Anemone Tab

   
-------------------------------------------------------------------------------
			    Anemone - The Brian Jonestown Massacre
-------------------------------------------------------------------------------
Tabbed by: Allan Feeney
Email:hockey_jock22@hotmail.com

Tuning:eadgbe
[ Tab from: http://www.guitartabs.cc/tabs/b/brian_jonestown_massacre/anemone_tab.html ]
             Em                                            A                     Repeat(  2nd ending
e|------------------------------------------ ----:------------------3--3--2--2-------|
B|------------------------------------3--3h5~---:---------3-3h5555--5--5--5--5- -----|
G|----------2^0----0-----0 0 2^0--2/4--4-------  :------2/4-4-------------------- ---|
D|----0---------2----0h2--------2-------------- :------------------------------------|
A|-0h2------------------------------------------:------------------------------------|
E|------0--------------------------------------- :-----------------------------------|
                                                                                                 (
Riff is played loosely throughtout song, solo in penatonic scale

| /  slide up
| \  slide down
| h  hammer-on
| p  pull-off
| ~  vibrato
| +  harmonic
| x  Mute note
===============================================================================
Comments