Brian Eno - The Fat Lady Of Limbourg Chords & Tabs

 

The Fat Lady Of Limbourg Chords & Tabs

Brian Eno Chords & Tabs

Version: 1 Type: Bass Tab 0 ratings
1 star 2 stars 3 stars 4 stars 5 stars
comments

The Fat Lady Of Limbourg Bass Tab

-------------------------------------------------------------------------------
The Fat Lady of Limbourg - Brian Eno (Taking Tiger Mountain by Strategy)
-------------------------------------------------------------------------------

Tabbed By: Sam
e-mail: samf@nc.rr.com 

Tuning: EADG

Key: a minor

This song should be pretty easy to figure out, but I thought I'd save someone else
the 15 minutes it took me.

The basic verse part goes as such:

G|---------------------------------------------------------------------------|
D|------7--------7--------7--------7--------5-------6------7-----------------|
A|---7--------7-------7--------7--------7-------7-------7--------------------|
E|---------------------------------------------------------------------------|

Repeat this quite a bit.  
[ Tab from: http://www.guitartabs.cc/tabs/b/brian_eno/the_fat_lady_of_limbourg_btab.html ]
At the "I assume you understand we have options on your time..." part, play this
G|---------------------------------------------------------------------------|
D|---7-----------5------5------7------------7--------------------------------|
A|-----7------7--------------------------------------------------------------|
E|---------------------------------------------------------------------------|

Then go back to the previous pattern


If you were wondering, the horn part goes like this:
G|-------------9----7-9-----5-------------------9----7-9-----5---------------|
D|------7-7--------------------7---------7-7--------------------7------------|
A|---------------------------------------------------------------------------|
E|---------------------------------------------------------------------------|

G|------------7----5-7---4---------------------------------------------------|
D|-----5-5------------------5----7-------------------------------------------|
A|---------------------------------------------------------------------------|
E|---------------------------------------------------------------------------|
Comments