Breeders - When I Was A Painter Chords & Tabs

 

When I Was A Painter Chords & Tabs

Breeders Chords & Tabs

Version: 1 Type: Tab 0 ratings
1 star 2 stars 3 stars 4 stars 5 stars
comments

When I Was A Painter Tab

   
#----------------------------------PLEASE NOTE---------------------------------#
#This file is the author's own work and represents their interpretation of the #
#song. You may only use this file for private study, scholarship, or research. #
#------------------------------------------------------------------------------#

when i was a painter by kim deal(The Breeders)
transcribed by Edmond Hum 

 e-------------------------------------------------------
 b-------------------------------------------------------
 g-------------------------------------------------------
 d-------------------------------------------------------
 a----5-5-0-5-5--[11x]----5-5----------------------------
 e-------------------------------------------------------
[ Tab from: http://www.guitartabs.cc/tabs/b/breeders/when_i_was_a_painter_tab.html ]
 e-------------------------------------------------------
 b-------------------------------------------------------
 g-------------------------------------------------------
 d-------------------------------------------------------
 a----5-5-0-5-5--[5x]----5-5-----------------------------
 e-------------------------------------------------------



                            D
 e---------------------|----10----|----------------------
 b----12b13b12---------|----10----|----12b13b12----------
 g----12b13b12---[4x]--|----11----|----12b13b12---[3x]---
 d------|--------------|----12----|----------------------
 a-----[b=bend note]---|----12----|----------------------
 e---------------------|----10----|----------------------

 e-------------------------------------------------------
 b-------------------------------------------------------
 g-------------------------------------------------------
 d-------------------------------------------------------
 a----5-5-0-5-5--[9x]----5-5-----------------------------
 e-------------------------------------------------------


.e-------------------------------------------------------
 b-------------------------------------------------------
 g-------------------------------------------------------
 d-------------------------------------------------------
 a----5---10s8s10s8-5---[9x]----10b11--------------------
 e-------------------------------------------------------
Comments