Breeders - Metal Man Chords & Tabs

 

Metal Man Chords & Tabs

Breeders Chords & Tabs

Version: 1 Type: Chords 0 ratings
1 star 2 stars 3 stars 4 stars 5 stars
comments

Metal Man Chords

   
#----------------------------------PLEASE NOTE---------------------------------#
#This file is the author's own work and represents their interpretation of the #
#song. You may only use this file for private study, scholarship, or research. #
#------------------------------------------------------------------------------#
metal man by kim deal(The Breeders)
transcribed by Edmond Hum 

 e---------------------
 b---------------------
 g---------------------
 d------5-5-----7-5----
 a----5-------5--------
 e---------------------

A7 D7 [10x]



 e-------------------------------------------------------
 b-------------------------------------------------------
 g-------------------------------------------------------
 d-------------------------------------------------------
 a----0-0-0-0--0-0-0-0--3-3-3s5--5-5-5-5------[3x]-------
 e-------------------------------------------------------


[ Tab from: http://www.guitartabs.cc/tabs/b/breeders/metal_man_crd.html ]
 e-------------------------------------------------------
 b-------------------------------------------------------
 g-------------------------------------------------------
 d-------------------------------------------------------
 a----0-0-0-0--0-0-0-0--0-0-0-5--5-5-5-5-----------------
 e-------------------------------------------------------

A7 D7 [3x]
A C D [3x] - A
A7 D7 [4x]


F7

 e-------------------------------------------------------
 b-------------------------------------------------------
 g-------------------------------------------------------
 d-------------------------------------------------------
 a----0-0-0-0--0-0-0-0--3-3-3s5--5-5-5-5------[3x]-------
 e-------------------------------------------------------

 e-------------------------------------------------------
 b-------------------------------------------------------
 g-------------------------------------------------------
 d-------------------------------------------------------
 a----0-0-0-0--0-0-0-0--0-0-0-5--5-5-5-5-----------------
 e-------------------------------------------------------

A7 D7 [4x]

Comments