Breeders - Lime House Chords & Tabs

 

Lime House Chords & Tabs

Breeders Chords & Tabs

Version: 1 Type: Tab 0 ratings
1 star 2 stars 3 stars 4 stars 5 stars
comments

Lime House Tab

#----------------------------------PLEASE NOTE---------------------------------#
#This file is the author's own work and represents their interpretation of the #
#song. You may only use this file for private study, scholarship, or research. #
#------------------------------------------------------------------------------#
lime house by kim deal(The Breeders)
transcribed by Edmond Hum 


 e-----5-3---
 b-----------
 g---2-------
 d-----------
 a-----------
 e-----------


 e-----5-3-----------------------------------------------
 b-----------2-1-2-1-2---2-1-2-5-2-----------------------
 g---2-------------------------------2-0-2-0-2-0-0-0-----
 d-------------------------------------------------------
 a-------------------------------------------------------
 e-------------------------------------------------------



 e-------------------------------------------5-3---------
 b---0-2-0----2-0-0-2-0-0-2-0-0-0-2-0--------------------
 g-----------------------------------------2-------------
 d-------------------------------------------------------
 a-------------------------------------------------------
 e-------------------------------------------------------

~~~~~~~~~~~~~~~~~~~~~~~~~~~~~~~~~~~~~~~~~~~~~~~~~~~~~~~~~~~~~~~~~~
i'm in a lime house
i am in a lime house
i'm in a lime house
i am in a lime house

 e---3-3-3-3---1-1-1-1---6-6-6-6---8-8-8-8---------------
 b---3-3-3-3---1-1-1-1---6-6-6-6---8-8-8-8---- [ 3x ] ---
 g-------------------------------------------------------
 d-------------------------------------------------------
 a-------------------------------------------------------
 e-------------------------------------------------------
[ Tab from: http://www.guitartabs.cc/tabs/b/breeders/lime_house_tab.html ]
 e---3-3--4--5-5-5-5-------------------------------------
 b---3-3--4--5-5-5-5--- [ 4x] ---------------------------
 g-------------------------------------------------------
 d-------------------------------------------------------
 a-------------------------------------------------------
 e-------------------------------------------------------



 e-------------------------------------------5-3---------
 b---0-2-0----2-0-0-2-0-0-2-0-0-0-2-0--------------------
 g-----------------------------------------2-------------
 d-------------------------------------------------------
 a-------------------------------------------------------
 e-------------------------------------------------------

 e----------5-5-3-----5-3--------------------------------
 b-------------------------------------------------------
 g---0-2----------0-2-----0-2----------------------------
 d-------------------------------------------------------
 a-------------------------------------------------------
 e-------------------------------------------------------

 e-----5-3-----------------------------------------------
 b-----------2-1-2-1-2---2-1-2-5-2-----------------------
 g---2-------------------------------2-0-2-0-2-0-0-0-----
 d-------------------------------------------------------
 a-------------------------------------------------------
 e-------------------------------------------------------


 e---3-3-3-3---1-1-1-1---6-6-6-6---8-8-8-8---------------
 b---3-3-3-3---1-1-1-1---6-6-6-6---8-8-8-8---- [ 4x ] ---
 g-------------------------------------------------------
 d-------------------------------------------------------
 a-------------------------------------------------------
 e-------------------------------------------------------


 e---3-3--4--5-5-5-5-------------------------------------
 b---3-3--4--5-5-5-5--- [ 4x ] --------------------------
 g-------------------------------------------------------
 d-------------------------------------------------------
 a-------------------------------------------------------
 e-------------------------------------------------------



 e-----5-3---
 b-----------
 g---2-------
 d-----------
 a----------- 
Comments