Breeders - Iris Chords & Tabs

 

Iris Chords & Tabs

Breeders Chords & Tabs

Version: 1 Type: Tab 0 ratings
1 star 2 stars 3 stars 4 stars 5 stars
comments

Iris Tab

   
#----------------------------------PLEASE NOTE---------------------------------#
#This file is the author's own work and represents their interpretation of the #
#song. You may only use this file for private study, scholarship, or research. #
#------------------------------------------------------------------------------#
iris by kim deal(The Breeders)
transcribed by Edmond Hum 



        F#  
 e------2------------------------------------------------
 b------2------------------------------------------------
 g------3------------------------------------------------
 d------4------------------------------------------------
 a------4------------------------------------------------
*e----0h2-----

---start---

 e----------------------
 b----4-3---4-4-3-4-3---
 g----------------------
 d----------------------
 a----------------------
 e----------------------


-------------------------[ special ]-----------------------

C#       E         F#
stay for last time
C#          E            F#
oh come on, nobody wants that
       C#         E  F#    B     A
sister -  sister,    oh oh oh oh oh


 e--------------------------------------
 b-----------------------13-13-13-13----
 g---6-6-6-6s--9-9-9-9s--11-11-11-11----  
 d--------------------------------------
 a--------------------------------------
 e--------------------------------------

------------------------[ end special ] -------------------

 e--------------------------------
 b----12-11---11-11-11s9-7--------
 g--------------------------------
 d--------------------------------
 a--------------------------------
 e--------------------------------

 e--------------------------------
 b--------------------------------
 g--------------------------------
 d--------------------------------
 a------------4s--11s4s7----------     
 e----2---4h5--------------9s2----



-------------------------[ special ]-----------------------

C#  E          F#
all last night
        C#          E            F#
because -  come on, nobody wants that
       C#         E  F#    B     A
sister,   sister,    oh oh oh oh oh



 e-------------------------------------
 b-----------------------13-13-13-13---
 g---6-6-6-6s--9-9-9-9s--11-11-11-11---  
 d-------------------------------------
 a-------------------------------------
 e-------------------------------------

------------------------[ end special ] -------------------

 e----------------------------
 b----12-11---11-11-11s9-7----
 g----------------------------
 d----------------------------
 a----------------------------
 e----------------------------


****************************************************************************************************************************

****************************************************************************************************************************



glorious by kim deal(The Breeders)
transcribed by Edmond Hum 
[ Tab from: http://www.guitartabs.cc/tabs/b/breeders/iris_tab.html ]
 e-------------------|--12---11-12-----|   e--------------------------------------
 b----13---12-13-10--|-------------10--|   b----10--------------------------------
 g-------------------|-----------------|   g-------9s2-12----------9s4------------
 d-------------------|-----------------|   d--------------12s5-7------------------
 a------[ 2x ]-------|-----------------|   a--------------------------------------
 e-------------------|-----------------|   e--------------------------------------

 e-------------------|--12---11------|--10-8-------8-10---
 b----13---12-13-10--|----------10---|-------9-7-9--------
 g-------------------|---------------|--------------------
 d-------------------|---------------|--------------------
 a-----[ 2x ]--------|---------------|-----[ 4x ]---------
 e-------------------|---------------|--------------------


****************************************************************************************************************************

****************************************************************************************************************************


Happiness is a warm gun by john lennon & paul mccartney
performed by the breeders
transcribed by Edmond Hum 


 e-------------------------------------------------------
 b-------------------------------------------------------
 g-------------------------------------------------------
 d-----5-------------------------------------------------
 a---7---7-------5h7-5-----------------------------------
 e---------8-5-8-------8-5-------------------------------


 e-------------------------------------------------------
 b-------------------------------------------------------
 g-------------------------------------------------------
 d-----5-------------------------------------------------
 a---7---7-------5-7-----7-8-9-10------------------------
 e---------8-5-8-----------------------------------------


**********************************************************


From: wdavis@decserv1.eecs.wsu.edu (Wyatt Davis - MME)
Subject: CRD:  "Fortunately Gone"  The Breeders (w/ correction) 

Fortunately Gone (solo)
by Kim Deal

From the album "Pod"

solo:

--------------------------------------------------------------------
--------------------------------------------------------------------
--------------------------------------------------------------------
-----------------------------4--------------------------------------
--4-2-1-0----0-2-4-2-4-2-4/6---6------4-2-1-0---0-2-4-2-1-2---------
----------4-----------------------------------3---------------------

--------------------------------------------------------------------
--------------------------------------------------------------------
--------------------------------------------------------------------
--------------------------------------------------------------------
--2-1-2----0-2-4-2--1-1/2---2-2/4---4-4/6---6-6/7-------------------
--------3-----------------------------------------------------------

 d--------------------------------4----------------------
 a---------------2-5----2-4-2---6---6--------------------
 e---7-6-7-4---4-----------------------------------------

 d-------------------------------------------------------
 a-----------------2-4-2-0-2-----------------------------
 e---7-6-5-4-3---3---------------------------------------

 d-------------------------------------------------------
 a---------------2-4---2-0-2---2-2s4---4-4s6---6-6-6-6---
 e---7-6-7-4---4-----------------------------------------

Comments