Breeders - Huffer Chords & Tabs

 

Huffer Chords & Tabs

Breeders Chords & Tabs

Version: 2 Type: Tab 0 ratings
1 star 2 stars 3 stars 4 stars 5 stars
comments

Huffer Tab

Artist: The Breeders
Song: Huffer
Tuning: Standar
Tabbed by Alejandro Peņa

    _____
   / _  / 
  / ___/ UNK  Kick ass
 /_/


Intro                                                                 

|----------------------------------------------------------------------|
|----------------------------------------------------------------------|
|-------------------------------------4-4-4-4-4-4-4-4-4-4-4-4-4-4-4-4--|
|--------------bass-------------------4-4-4-4-4-4-4-4-4-4-4-4-4-4-4-4--|
|-------------------------------------2-2-2-2-2-2-2-2-2-2-2-2-2-2-2-2--|
|----------------------------------------------------------------------|

|--------------------------------------------------------------------|
|--------------------------------------------------------------------|
|-----------------------------------4-4-4-4---------9-9-9-9-9-9-9-9--|
|--------------bass-----------------4-4-4-4-6-6-6-6-9-9-9-9-9-9-9-9--|
|-----------------------------------2-2-2-2-6-6-6-6-7-7-7-7-7-7-7-7--|
|-------------------------------------------4-4-4-4------------------|


Chorus                         
                
 |-----------------------------------|guitar1 	x4
 |-----------------------------------| 	
 |--9-9-9-9-9-9-9-9------------------| 	
 |--9-9-9-9-9-9-9-9-9-9-9-9-9-9-9-9--| 	
 |--7-7-7-7-7-7-7-7-9-9-9-9-9-9-9-9--| 
 |------------------7-7-7-7-7-7-7-7--| 
 |                        
 |-----------------------------------|guitar2
 |-----------------------------------|
 |--------------------------7h8-7h8--|
 |-----------------------------------|
 |-----------------------------------|
 |-----------------------------------|


 |---------------------------|guitar1
 |---------------------------|
 |--11-11-11-11-11-11-11-11--|
 |--11-11-11-11-11-11-11-11--|
 |---9--9--9--9--9--9--9--9--|
 |---------------------------|


intro again
|----------------------------------------------------------------------|
|----------------------------------------------------------------------|
|-------------------------------------4-4-4-4-4-4-4-4-4-4-4-4-4-4-4-4--|
|--------------bass-------------------4-4-4-4-4-4-4-4-4-4-4-4-4-4-4-4--|
|-------------------------------------2-2-2-2-2-2-2-2-2-2-2-2-2-2-2-2--|
|----------------------------------------------------------------------|

|--------------------------------------------------------------------|
|--------------------------------------------------------------------|
|-----------------------------------4-4-4-4---------9-9-9-9-9-9-9-9--|
|--------------bass-----------------4-4-4-4-6-6-6-6-9-9-9-9-9-9-9-9--|
|-----------------------------------2-2-2-2-6-6-6-6-7-7-7-7-7-7-7-7--|
|-------------------------------------------4-4-4-4------------------|
[ Tab from: http://www.guitartabs.cc/tabs/b/breeders/huffer_tab_ver_2.html ]
Chorus                         
                
 |-----------------------------------|guitar1 	x4
 |-----------------------------------| 	
 |--9-9-9-9-9-9-9-9------------------| 	
 |--9-9-9-9-9-9-9-9-9-9-9-9-9-9-9-9--| 	
 |--7-7-7-7-7-7-7-7-9-9-9-9-9-9-9-9--| 
 |------------------7-7-7-7-7-7-7-7--| 
 |                        
 |-----------------------------------|guitar2
 |-----------------------------------|
 |--------------------------7h8-7h8--|
 |-----------------------------------|
 |-----------------------------------|
 |-----------------------------------|


 |---------------------------|guitar1
 |---------------------------|
 |--11-11-11-11-11-11-11-11--|
 |--11-11-11-11-11-11-11-11--|
 |---9--9--9--9--9--9--9--9--|
 |---------------------------|


To the end
|------------------------------------------------------------|guitar1
|------------------------------------------------------------|
|--------9-9-9-------6-6-6-----------------------------------|
|--------9-9-9-------6-6-6-----------------------------------|
|--------7-7-7-------4-4-4-----------------------------------|
|------------------------------------------------------------|
|                |
|------------------------------------------------------------|guitar2
|------------------------------------------------------------|
|--9-9-9-------8-8-8--------4-4-4-4-4-4-4-4-4-4-4-4-4-4-4-4--|
|--9-9-9-------8-8-8--------4-4-4-4-4-4-4-4-4-4-4-4-4-4-4-4--|
|--7-7-7-------6-6-6--------2-2-2-2-2-2-2-2-2-2-2-2-2-2-2-2--|
|------------------------------------------------------------|


|------------------------------------------------------------|guitar1
|------------------------------------------------------------|
|--------8/9-9-------6-6-6\-4-4-4-4---------9-9-9-9-9-9-9-9--|
|--------6/7-7-------6-6-6\-4-4-4-4-6-6-6-6-9-9-9-9-9-9-9-9--|
|--------6/7-7-------4-4-4\-2-2-2-2-6-6-6-6-7-7-7-7-7-7-7-7--|
|-----------------------------------4-4-4-4------------------|
|              
|------------------------------------------------------------|guitar2
|------------------------------------------------------------|
|--9-9-9-------8-8-8-----------------------------------------|
|--9-9-9-------8-8-8-----------------------------------------|
|--7-7-7-------6-6-6-----------------------------------------|
|------------------------------------------------------------|

Chorus                         
                
 |-----------------------------------|guitar1 	x4
 |-----------------------------------| 	
 |--9-9-9-9-9-9-9-9------------------| 	
 |--9-9-9-9-9-9-9-9-9-9-9-9-9-9-9-9--| 	
 |--7-7-7-7-7-7-7-7-9-9-9-9-9-9-9-9--| 
 |------------------7-7-7-7-7-7-7-7--| 
 |                        
 |-----------------------------------|guitar2
 |-----------------------------------|
 |--------------------------7h8-7h8--|
 |-----------------------------------|
 |-----------------------------------|
 |-----------------------------------|


 |---------------------------|guitar1
 |---------------------------|
 |--11-11-11-11-11-11-11-11--|
 |--11-11-11-11-11-11-11-11--|
 |---9--9--9--9--9--9--9--9--|
 |---------------------------|

doubts, corrections? alexbizkit_lb@hotmail.com
Comments