Breeders - Hag Chords & Tabs

 

Hag Chords & Tabs

Breeders Chords & Tabs

Version: 2 Type: Tab 0 ratings
1 star 2 stars 3 stars 4 stars 5 stars
comments

Hag Tab

   
##################################################################################
# This file is the author's own work and represents their interpretation of the  #
# song. You may only use this file for private study, scholarship, or research.  #
##################################################################################

The Breeders - Hag


Over the intro and verse, play like so:
-----------------------------------
---------------------7-7--6-6--4---
---------------------7-7--6-6--4---
---------------------7-7--6-6--4---
-2--6--9----7/3------5-5--4-4--2---
-----------------------------------

then:All night    All night    All night

F#  B(strum)
--2------------------------4----------------------
--2------------------------4----------------------
--3------------------------4----------------------
--4------------------------4----------------------
--4------------------------2----------------------
--2-----------------------------------------------


Under the stars  under their light


*************************************************************************************************************
[ Tab from: http://www.guitartabs.cc/tabs/b/breeders/hag_tab_ver_2.html ]
*************************************************************************************************************


Breeders - Drivin on 9


The verse is pretty straight forward: G  DAmC


I play the part during the chorus like this:
G  C
-7--7-5-7--7-5-7-5-3------12--12-10-12--12-10-12-10-8-
------------------------------------------------------
------------------------------------------------------
------------------------------------------------------
------------------------------------------------------
------------------------------------------------------

F# (strum) 
--2----------------------------------------------
--2----------------------------------------------
--3----------------------------------------------
--4----------------------------------------------
--4----------------------------------------------
--2----------------------------------------------


All over the girl  only looks bright

F#          E    E7(strum)  
--2----------------------------------------------
--2------------------------------------------3---
--3-----------1------------------------------1---
--4-----------2------------------------------2---
--4-----------2------------------------------2---
--2---------------------------------------------
Comments