Breeders - Cannon Ball Chords & Tabs

 

Cannon Ball Chords & Tabs

Breeders Chords & Tabs

Version: 2 Type: Bass Tab 0 ratings
1 star 2 stars 3 stars 4 stars 5 stars
comments

Cannon Ball Bass Tab

Cannon Ball
By The Breeders

        Here's an oldie but goodie

It starts out w/ all the oo-ahs, then a little drum ditty. Now the bass

A|:-2/13-13-13-13-:|:-2/13-13-13-13-6-6-6-6-:|-2/13-13-|

the middle part is played during the verse.

Want U Cuckoo...
[ Tab from: http://www.guitartabs.cc/tabs/b/breeders/cannon_ball_btab_ver_2.html ]
G:-----------1-1-1-1-----|
D:-----1-1--------------*|
A:-1-1-----1------------*|
E:-----------------------|

In the shade...

G:-----------1---1-3-|
D:-------1-----1----*|
A:-1-1-0---1--------*|
E:-------------------|

that's it.  listen to the song to get the arrangement and order.

transcribed by zeek 
  zeekford@capecod.net


Comments