Breakthru - Trouble Times Chords & Tabs

 

Trouble Times Chords & Tabs

Breakthru Chords & Tabs

Version: 1 Type: Bass Tab 0 ratings
1 star 2 stars 3 stars 4 stars 5 stars
comments

Trouble Times Bass Tab

Intro/Verse  
G-------------------------------------------------------------------
D-------------------------------------------------------------------
A--2-2-2-2----------------------------------------------------------
E----------2-2-2-2--0-0-0-0-0-0-0-----------------------------------


pre-chorus/ play fast

G-------------------------------------------------------------------
D-------------------------------------------------------------------
A--2-2-2-2------------------2-2-2-2---------------------------------
E----------2-2--0-0-0-0-------------2---0-0-0----------------------
[ Tab from: http://www.guitartabs.cc/tabs/b/breakthru/trouble_times_btab.html ]
G-------------------------------------------------------------------
D-------------------------------------------------------------------
A-2-2-2-2-----------------------------------------------------------
E---------2--2-2---0-0-0-0-0-0-0-0---2-2-2-2-2----4--4-4-4---2-2-2-2


Chorus 

G-------------------------------------------------------------------
D-------------------------------------------------------------------
A-----------2-2-2-2-------------------------------------------------
E--0-0-0-0----------4-4-4-4----2-2-2-2-2-2-2-2----------------------



Order

Intro/Verse 6x
pre-chorus  1x
Chorus      2x
intro/verse 6x
pre-chorus  1x
chorus      2x
intro/verse 4x to end the song
Comments