Breaking Fate - Never After Chords & Tabs

 

Never After Chords & Tabs

Breaking Fate Chords & Tabs

Version: 1 Type: Tab 0 ratings
1 star 2 stars 3 stars 4 stars 5 stars
comments

Never After Tab

Hey all, this is the A-Train.  Have I got a Tab for you.  It’s a song called nEVER aFTER from this kick ass band I know called Breaking Fate.  Check it out, I’m sure you’ll be hearing them in the future.
Title: nEVER aFTER
          (stege, raynes)
Standard Tuning
(the #’s signify fret, not finger)
song intro:
E----------0--------------0------------0---------------0-------0-----0-------0-------0-----0---------
B------------0--------------0------------0---------------4-----0-------0-------0-------0-----0-------
G--------6-------------4------------2-------------4------------6---------6-------6-------6-----6-----
D------6-------------4------------2-------------4---4----------6-----------6-------6-------6-----6---
A----4-------------2------------0-------------2----------------4-------------------------------------
E----------------------------------------------------------------------------------------------------

verse intro:
E--------------0----                 E ---------------0-----               E------------------0----
B----------------0--                 B-------------------0--               B--------------------0--
G--------6---------6                 G----------4----------4               G---------2------------2
D------6---6--------   (x2)          D-------4---4----------   (x2)        D-------2---2----------- (x2) 
A----4--------------                 A----2-----------------               A----0------------------
E-------------------                 E----------------------               E-----------------------

E---------------0--------0------0------0--
B------------------0-------0------0------0
G--------4-----------4-------4------4-----
D------4---4-------------------------------
A----2-------------------------------------
E-------------------------------------------
[ Tab from: http://www.guitartabs.cc/tabs/b/breaking_fate/never_after_tab.html ]
verse:   (strumming pattern for each chord: down x3, up, down, up, down, up)     
E--0---------0---------0---------0--
B--0---------0---------0---------0--
G--6---------4---------2---------4--                       (play through twice)
D--6---------4---------2---------4--
A--4---------2---------0---------2--
E-------------------------------------

chorus: (similar strumming pattern to verse)
E-------------------------------------------------------------------------------
B-------------------------------------------------------------------------------
G--6--------4--------2--------------------6----9----4------2-------------------
D--6--------4--------2--------4----6------6----9----4------2------4-----6-------
A--4--------2--------0--------4----6------4----7----2------0------4-----6-------
E--4--------2--------X--------2----4------4----7----2------X-----2-----4–-------


bridge (x2) & solo (solo not tabbed)
E-----------0------------------------0-------------0-------------------------------0
B-------------0--------------------------------------0------------------------------
G-------6------6-------6---------9-----------4-------4-------------4----------9-----
D-----6---6----------6---6-------9---------4---4----------------4---4--------9------
A--4---------------4-----------7---------2--------------------2------------7--------
E-----------------------------------------------------------------------------------

E-----------0----------------------------------------0--------0-------0-------0---
B-------------0----------------------------------------0--------0-------0-------0-
G-------2-------2-------2--------9-----------4-----------4--------4-------4-------
D-----2---2-----------2---2------9---------4---4----------------------------------
A--0---------------0-----------7---------2----------------------------------------
E---------------------------------------------------------------------------------

Song Layout:
              Song intro
              Verse intro
              Verse
              Chorus
              Verse intro
              Verse
              Chorus
              Bridge
              Chorus
              Verse intro (used as Song outro)

That’s pretty much it, if you want the Lyrics and whatnot, e-mail the band at breakingfate@hotmail.com
P.S.-All of the band's work IS copywritten.
Comments