Breaking Benjamin - Wish I May Chords & Tabs

 

Wish I May Chords & Tabs

Breaking Benjamin Chords & Tabs

Version: 3 Type: Tab 0 ratings
1 star 2 stars 3 stars 4 stars 5 stars
comments

Wish I May Tab

Tabs by: asselin_82@hotmail.com

Artist: Breaking Benjamin
Song: Wish I May
Album: Saturate 

Standard Tuning Version 
(For those who doesn't like to change their tuning but try it, it sounds great!)

Note:
  h = hammer on 
  p = pull off 
  r = release bend
  b = bend up
  / = slide up
  \ = slide down
  * = palm mute
  > = Pick scrape up and down
  ~ = vibrate note
  ^ = harmonic


Intro
e|------------------------------------------------------------|
B|------------------------------------------------------------|
G|------------------------------------------------------------|
D|-6-6-6-4p3-0---6-6-6-6h7p6~~---6-6-6-4p3-0---6-6-6----------|
A|-4-4-4----4----4-4-4-----------4-4-4----4----4-4-4-4p2-4~~--|
E|-4-4-4---------4-4-4-----------4-4-4---------4-4-4----------|


Verse (Rhy. Guitar 1) Riff 1a
e|--------------------------------------------|
B|--------------------------------------------|
G|--------------------------------------------|
D|-66-6666--66-6666--9--66-6666--66-666--777--|
A|-44-4444--44-4444--7--44-4444--44-444--555--|
E|-44-4444--44-4444--7--44-4444--44-444--555--|
   ** ****  ** ****     ** ****  ** ***
[ Tab from: http://www.guitartabs.cc/tabs/b/breaking_benjamin/wish_i_may_tab_ver_3.html ]
Verse (Rhy. Guitar 1) Riff 1b
e|-------------------------------------|
B|-------------------------------------|
G|-------------------------------------|
D|-66-6666--66-6666--66-6666--66-6666--|
A|-44-4444--44-4444--44-4444--44-4446--|
E|-44-4444--44-4444--44-4444--44-4444--|
   ** ****  ** ****  ** ****  ** ****

Chorus
e|-------------------------------------|
B|-------------------------------------|
G|-------------------------------------|
D|-4--7--4--7--7--7--7--7--9--7--9--7--|
A|-4--5--4--5--7--5--7--5--9--5--9--5--|
E|-2--5--2--5--5--5--5--5--7--5--7--5--|

Bridge
e|-------------------------------------------------|
B|-------------------------------------------------|
G|-------------------------------------------------|
D|-444444-6----444444-6-7~--444444-6----7-7-7-7-7--|
A|-444444--7~--444444-------444444--7~--5-5-5-5-5--|
E|-222222------222222-------222222------5-5-5-5-5--|
   ******      ******       ******

Solo
e|-------------------------------------------------------------------------|
B|-----------------------------14-14-12~-10-10-9~-7-7-5~-0-2-2h3-2-2-2h3-2~|
G|-----------------------------14-14-13~-11-11-9~-7-7-6~----------4--------|
D|-----6~b-7b~-----------------------------------------------------------|
A|9~-7~---------9~-7~-4-4h5-5^~--------------------------------------------|
E|-------------------------------------------------------------------------|
Comments