Breaking Benjamin - So Cold Chords & Tabs

 

So Cold Chords & Tabs

Breaking Benjamin Chords & Tabs

Version: 5 Type: Tab 0 ratings
1 star 2 stars 3 stars 4 stars 5 stars
comments

So Cold Tab

   
----------------------------------------------------------------------------
		So Cold (solo)-Breaking Benjamin	     
----------------------------------------------------------------------------
Tabbed by:Mike (silenzo666)
Email:gildednymphetamine@yahoo.com
Site:http://x220.biz.ly/
Tuning:Drop-C (CGCFAD)
[ Tab from: http://www.guitartabs.cc/tabs/b/breaking_benjamin/so_cold_tab_ver_5.html ]
|------------------------------------------------------------8-8-8-8------|
|-10~-10~-10~-10~-10~-10~-7b-7-----------------------------8--------------|
|-10~-10~-10~-10~-10~-10~------10-7-10-7------------7-10-7----------------|
|----------------------------------------10-10-7-10-----------------------|
|-------------------------------------------------------------------------|
|-------------------------------------------------------------------------|

|-10b=10-8h10-15b-15b-13~-13----------------------------------------------|
|----------------------------15-14-13-------------------------------------|
|-------------------------------------15-14-13----------------------------|
|----------------------------------------------15-14-13-------------------|
|-------------------------------------------------------15-14-13-15-------|
|----------------------------------------------------------------15-------|

| /  slide up
| \  slide down
| h  hammer-on
| p  pull-off
| ~  vibrato
| +  harmonic
| x  Mute note
| =  Hold bend/play on top of bend
============================================================================
Comments