Breaking Benjamin - So Cold Chords & Tabs

 

So Cold Chords & Tabs

Breaking Benjamin Chords & Tabs

Version: 1 Type: Tab 8 ratings
1 star 2 stars 3 stars 4 stars 5 stars
comments

So Cold Tab

This song is fun to play. It's in drop d and down a whole step, so it's CGCFAD. I'm to lazy to time it, but it's not hard if you listen to the song.
It's played with three guitars, but you can make it work with 2.
This is taken out of Guitar World January 2005, but I had to correct a few places.

	Intro Part 1: 
Guitar 1: Played 6 times; played clean

                   Ending 1 to 6
D-|-------------|-----------------------
A-|-------------|-----------------------
F-|-------------|-----------------------
C-|----------3--|------------8-----7----
G-|----5---5----|----10---10-------8----
C-|--0---0------|--0----0---------------

Guitar 2: Enter third time; Played twice with reverb and echo

                  Ending 1            Ending 2 (With Rotosphere on high last time)
D-|--10--------|--10----------------|-10----------12---
A-|-----10--13-|-----10-10h13-10----|----10-13-10------
F-|------------|-----------------12-|------------------
C-|------------|--------------------|------------------
G-|------------|--------------------|------------------
C-|------------|--------------------|------------------

Guitar 3 (or 1): Enter fifth time; played with reverb and echo (you can drop the first riff if you want to, it doesn't sound much different without it.)

                                       Ending 1                      Ending 2 
D-|--------------------------------|------------------------------|-------------------------------
A-|--------------------------------|------------------------------|-------------------------------
F-|--------------------------------|------------------------------|-------------------------------
C-|---3-----------2--2-------------|---3-----------2--2-----------|---3-----------2--2------------
G-|-----5---3h5--------3-------3h5-|-----5---3h5--------3---3h5---|-----5---3h5--------3----3h5---
C-|-0-----0-----0--------0-3h5-----|-0-----0-----0--------0-----3-|-0-----0-----0--------0------3-

	Intro part 2:

Guitar 1 (and 3): played with distortion

D-|--------------------------------|------------------------------|-------------------------------
A-|--------------------------------|------------------------------|-------------------------------
F-|--------------------------------|------------------------------|-------------------------------
C-|---------------2--2-------------|---------------2--2---------3-|---------------2--2------5-----
G-|-----5---3h5--------3-------3h5-|-----5---3h5--------3---3h5-3-|-----5---3h5--------3----3--3-- (go right into pre-verse 
C-|-0-3---0-----0--------0-3h5-----|-0-3---0-----0--------0-----3-|-0-3---0-----0--------0-----3--

Guitar 2: played at same time, with distortion

                         Ending 1            Ending 2
D-|-10----------------|-10----------10-12-|-10-------------12----
A-|----10-10h13-10----|----10-13-10-------|----10-13-10-13-------
F-|----------------12-|-------------------|----------------------
C-|-------------------|-------------------|----------------------
G-|-------------------|-------------------|----------------------
C-|-------------------|-------------------|----------------------

	Pre-verse / Verse:

Guitar 1 (and 3): played with distortion
 
         Then play this 5x
D-|-----|  |-------|
A-|-----|  |-------|
F-|-----|  |-------|
C-|--0--|  |----0--|
G-|--0--|  |--3-0--|
C-|--0--|  |--3-0--|

Guitar 2 (with distortion): I'm not sure about this part. What I have below is what's in the magazine, but it doesn't sound right. I'll work on it later.

          Three times                             Once
D-|--------------------------------------------|-------------------------------
A-|--------------------------------------------|-------------------------------
F-|------14------12------15------14------10----|------14------12------9-----7v-
C-|-0-15----0-14----0-17----0-15----0-12----12-|-0-15----0-14----0-10---0-8----
G-|--------------------------------------------|-------------------------------
C-|--------------------------------------------|-------------------------------

	Chorus: 

Gutair 1-3: played with distortion
[ Tab from: http://www.guitartabs.cc/tabs/b/breaking_benjamin/so_cold_tab.html ]
                                  Ending 1                       Ending 2                   Ending 3                                Ending 4
D-|----------------------------|------------------------------|---------------------------|--------------------------------------|---------------------------
A-|------10--10-----10--10--10-|------------------------------|---------------------------|--------------------------------------|-13-13-13-13-13-13-13-13---
F-|------10--10-----10--10--10-|------------------------------|---------------------------|-7--7-7--9--9-9--10--10-10--12--12-12-|-12-12-12-12-12-12-12-12---
C-|--8---8---8---8--8---8---8--|-0-0--0-0--0-0--0-0--10-10-10-|-0-0--0-0--0-0--0-0--10-7--|-x--x-x--x--x-x--x---x--x---x---x--x--|-10-10-10-10-10-10-10-10---
G-|--8---8---8---8--8---8---8--|-0-0--0-0--0-0--0-0--10-10-10-|-0-0--0-0--0-0--0-0--10-7--|-5--5-5--7--7-7--8---8--8---10--10-10-|-10-10-10-10-10-10-10-10---
C-|--8---8---8---8--8---8---8--|-0-0--0-0--0-0--0-0--10-10-10-|-0-0--0-0--0-0--0-0--10-7--|--------------------------------------|-10-10-10-10-10-10-10-10---

(Play Intro part 2, second ending, then pre-verse/verse, then chorus again)

	Bridge:

Guitar 1 (and 3): played with distortion

D-|----------------------------------------------------------------------------
A-|----------------------------------------------------------------------------
F-|----------------------------------------------------------------------------
C-|----------------------------------------------------------------------------
G-|-------5---------5-------5-------3------------------------------------------
C-|-0-3-5---0-3-5-6---0-3-5---6-5-6---6-5-6------------------------------------

Guitar 2: played with distortion, enter third time through main riff (Fb= full bend, hb= half bend

D-|---------------------------------------------------------------------10------10fb------10-15fb-5fb-15-10------------------------------------------
A-|-10-10-10-10-10-10-10-10-10---------------------------------10-10h13----13hb-13fb-13fb-------------------13p10----10-------------------------10---
F-|-10-10-10-10-10-10-10-10-10-12fb-12p10----10----------10h12----------------------------------------------------12----12p10-12p10----10-------10---
C-|---------------------------------------12----12p10h12----------------------------------------------------------------------------12---12p10-------
G-|--------------------------------------------------------------------------------------------------------------------------------------------------
C-|--------------------------------------------------------------------------------------------------------------------------------------------------

(play chorus again)

	Outro Part 1:

Guitar 1 (and 3): with distortion, palm muted: 4 times

D-|-----------------------------------------
A-|-10-----10-----10-----10-----------------
F-|-10-----10-----10-----10-----7-7-7-7-7---
C-|----0-0----0-0----0-0----0-0-8-----------
G-|-----------------------------------------
C-|-----------------------------------------

Guitar 2: with distortion, plam muted, enter second time

D-|------------------------------------------
A-|-0-----0------0------0--------------------
F-|-14----14-----14-----14-----11-11-11-11---
C-|---0-0----0-0----0-0----0-0-12------------
G-|------------------------------------------
C-|------------------------------------------

	Outro Part 2:

Guitar 1-3: with distortion, 4 times

D-|-----------------------------------
A-|---------------------10-10-10-10---
F-|---------------------10-10-10-10---
C-|-0--0-0--0--0-0-0--0-8--8--8--8----
G-|-0--0-0--0--0-0-0--0-8--8--8--8----
C-|-0--0-0--0--0-0-0--0-8--8--8--8----

	Outro Part 3:

Guitar 1-3: with distortion, 3 times

D-|-----------------------------------------------------
A-|---------------------------------------10-10-10-10---
F-|-7--7-7--10--10-10--9--9-9--10--10-10--10-10-10-10---
C-|-x--x-x--x---x--x---x--x-x--x---x--x---8--8--8--8----
G-|-5--5-5--8---8--8---7--7-7--8---8--8---8--8--8--8----
C-|---------------------------------------8--8--8--8----

	Outro Part 4:

Guitar 1-3: with distortion, 1 time

D-|------------
A-|------------
F-|-7--10--9---
C-|-x--x---x---
G-|-5--8---7---
C-|------------

That's it.
Comments