Breaking Benjamin - So Cold Chords & Tabs

 

So Cold Chords & Tabs

Breaking Benjamin Chords & Tabs

Version: 2 Type: Bass Tab 0 ratings
1 star 2 stars 3 stars 4 stars 5 stars
comments

So Cold Bass Tab

   
Artist:  Breaking Benjamin
Song:  So Cold
Album:  We are not alone
Track:  1
Bassist:  Markus James

Tunning(C,G,C,F)

This is the best i could do i know its better than some of the other
versions of this song ne where. I spent most of the time watchin the
video to see what he was doing and noticed some of the things on other
tabs where wrong so that is why i am making this tab. the only part i
couldn't figure out is the part right before the 2nd chours. So heres
I think he plays.

Intro,
Hit note with the drummer when he hits the bell on the ride

F:--------|-------|
C:-0------|-0-----|
G:--------|-------|
C:--------|-------|

Intro part 2 (X2),

F:---10-7---5-7---9-9-5-------5h7-|
C:-0------0-----0-------0-3h5-----|
G:--------------------------------|
C:--------------------------------|

F:---10-7---5-7---9-9-5-0-5h7---|
C:-0------0-----0-------------3-|
G:------------------------------|
C:------------------------------|

Pre Verse (X2),

F:-------------------------------|
C:-------------------------------|
G:---8-5---3-5---7-7-3-------3h5-|
C:-0-----0-----0-------0-3h5-----|

F:---------------------|--1st time only--|-2nd time--|
C:---------------------|-----------------|-----------|
G:---8-5---3-5---7-7-3-|0-3h5------------|0---3------|
C:-0-----0-----0-------|------3----------|--3---0~---|

Verse (X5)
You will hear when to hit this

F:------|
C:------|
G:------|
C:-3-0~-|

Chorus,This is a part that I noticed was differnt than the tabs in the
video he plays this on these octave higher frets
(its 13 not 1-3)

F:---Play all 3 times-------------|--1st time only-------|
C:--------------------------------|----------------------|
G:13131313131313131313131313131313|-------------15151515-|
C:--------------------------------|-00-00-00-00----------|

F:--2nd time only---|-3rd time only-|
C:------------------|---------------|
G:-------------15-0-|---------------|
C:-00-00-00-00------|-0-14-15-17----|

F:-------------------4th time only-----------------------------------|
C:-------------------------------------------------------------------|
G:13131313131313131313131313131313-1515151515151515-1212121212121212-|
C:-------------------------------------------------------------------|

Pre verse,
[ Tab from: http://www.guitartabs.cc/tabs/b/breaking_benjamin/so_cold_btab_ver_2.html ]
F:-------------------------------|
C:-------------------------------|
G:---8-5---3-5---7-7-3-------3h5-|
C:-0-----0-----0-------0-3h5-----|

F:---------------------|-----------|
C:---------------------|-----------|
G:---8-5---3-5---7-7-3-|0---3------|
C:-0-----0-----0-------|--3---0----|

2nd verse(x8), this is another part no one had right in there tab and I
watched the video and this is the best i could come up with for this
which i'm pretty sure is close to right 

F:7-7-77h10755h75-|
C:----------------|
G:----------------|
C:----------------|

I cant figure out the part between this and the chorus, your guess is
as good as mine

Chorus,

F:---Play all 3 times-------------|--1st time only-------|
C:--------------------------------|----------------------|
G:13131313131313131313131313131313|-------------15151515-|
C:--------------------------------|-00-00-00-00----------|

F:--2nd time only---|-3rd time only-|
C:------------------|---------------|
G:-------------15-0-|---------------|
C:-00-00-00-00------|-0-14-15-17----|

F:-------------------4th time only-----------------------------------|
C:-------------------------------------------------------------------|
G:13131313131313131313131313131313-1515151515151515-1212121212121212-|
C:-------------------------------------------------------------------|

Breakdown(x4)

F:----------------------------------|
C:----------------------------------|
G:-------5--------5-------5----3----|
C:-0-3h5---0-3-5-6--0-3h5---656-656-|

Chorus,

F:---------------------------------|----------------------------------|
C:---------------------------------|-------------3587-----------------|
G:111111111111-753-------------3333|111111111111------------------3-0-|
C:-----------------00-00-00-00-----|------------------00-00-00-00-----|

F:------------------------------------|----------------55-------------|
C:---------------753------------------|-------------------------------|
G:11111111111-353---------------------|1111111111111-33--333333555555-|
C:-------------------0000222233335555-|-------------------------------|

Outro,

F:-----(X4)------|
C:---------------|
G:----------8888-|
C:-0000-0000-----|

F:---(X3)----|
C:---------6-|
G:-5-8-7-8---|
C:-----------|

F:---------|
C:---------|
G:-5-8/17~-|
C:---------|
Comments