Breaking Benjamin - Skin Chords & Tabs

 

Skin Chords & Tabs

Breaking Benjamin Chords & Tabs

Version: 5 Type: Tab 0 ratings
1 star 2 stars 3 stars 4 stars 5 stars
comments

Skin Tab

   
Artist: Breaking Benjamin
Song: Skin
Album: Saturate 
Tabbed by: Philip Gosche (gosche15@yahoo.com)

Notation:
  h - hammer on 
  p - pull off 
  b - bend string up
  r - release bend
  / - slide up
  \ - slide down
 pm - palm muting
  * - natural harmonic

Tuning (low to high):  Db, Ab, Db, Gb, Bb, Eb

Intro
(Guitar 1) 4X
Eb|---------------------------------|
Bb|---------------------------------|
Gb|---------------------------------|
Db|-0-0-X-X-0-0-7-7-5-5-X-X-5-5-8-8-|  3X
Ab|-0-0-X-X-0-0-7-7-5-5-X-X-5-5-8-8-|
Db|-0-0-X-X-0-0-7-7-5-5-X-X-5-5-8-8-|

Eb|---------------------------------|
Bb|---------------------------------|
Gb|---------------------------------|
Db|-0-0-X-X-0-0-7-7-5\--------------|  1X
Ab|-0-0-X-X-0-0-7-7-5\--------------|
Db|-0-0-X-X-0-0-7-7-5\--------------|

(Guitar 2) 2X (Comes in on the third time of Guitar 1)
Eb|------------------------------------|
Bb|------------------------------------|
Gb|-----7-6-7-9-7-6-7-----7-6-10-9-7---|
Db|-6/7---------------6/7------------7-|
Ab|------------------------------------|
Db|------------------------------------|

Eb|------------------------------------|
Bb|------------------------------------|
Gb|-----7-6-7-9-7-6-7------------------|
Db|-6/7---------------6\---------------|
Ab|------------------------------------|
Db|------------------------------------|

Verse both guitars (Palm muted) 4X
Eb|------------------------------------|
Bb|------------------------------------|
Gb|------------------------------------|
Db|-0-0-X-X-0-0-7-7-5-5-X-X-8-8--------|
Ab|-0-0-X-X-0-0-7-7-5-5-X-X-8-8--------|
Db|-0-0-X-X-0-0-7-7-5-5-X-X-8-8--------|

Pre-Chorus (Guitar 1)
Eb|--------------------------------------|
Bb|--------------------------------------|
Gb|--------------------------------------|
Db|-9-9------7-7-------5-5-------5-5-----| 1X
Ab|-9-9------7-7-------5-5-------5-5-----|
Db|-9-9------7-7-------5-5-------5-5-----|

(Guitar 2)
Eb|--------------------------------------|
Bb|--------------------------------------|
Gb|-----6h7-------6h7-------6h7------6h7-|
Db|--------------------------------------| 1X
Ab|--------------------------------------|
Db|--------------------------------------|
[ Tab from: http://www.guitartabs.cc/tabs/b/breaking_benjamin/skin_tab_ver_5.html ]
(Guitar 1)
Eb|--------------------------------------|
Bb|--------------------------------------|
Gb|--------------------------------------|
Db|-9-9------7-7-------5-5-------5-5-----| 1X
Ab|-9-9------7-7-------5-5-------5-5-----|
Db|-9-9------7-7-------5-5-------5-5-----|

(Guitar 2)
Eb|--------------------------------------|
Bb|-----5h7-------5h7------5h7-------5h7-|
Gb|--------------------------------------|
Db|--------------------------------------| 1X
Ab|--------------------------------------|
Db|--------------------------------------|

Chorus (Guitar 1) 4X
Eb|--------------------------------------|
Bb|--------------------------------------|
Gb|--------------------------------------|
Db|-0-0-0-0-7-7-7-7-5-5-5-5-5-5-5-5------|
Ab|-0-0-0-0-7-7-7-7-5-5-5-5-5-5-5-5------|
Db|-0-0-0-0-7-7-7-7-5-5-5-5-5-5-5-5------|

(Guitar 2)
Eb|------------|
Bb|--8-8-10-8--|
Gb|------------|
Db|------------| 
Ab|------------|
Db|------------|

After the 4th time play...
Eb|------------------------------------|
Bb|----------------------------7*---7*-|
Gb|--------------------------5*---5*---|
Db|-2-2-2-2-2-2-2-2-5-5-5-5------------| 
Ab|-2-2-2-2-2-2-2-2-5-5-5-5------------|
Db|-2-2-2-2-2-2-2-2-5-5-5-5------------|

Solo (Verse is played 4X during the solo)
Each note is trill picked 7-10-8-11-10-14-15-17
Eb|------------------------------------------------------|
Bb|-77777777-10101010-88888888-11111111-1010101010101010-|
Gb|------------------------------------------------------|
Db|------------------------------------------------------| 
Ab|------------------------------------------------------|
Db|------------------------------------------------------|


Eb|------------------------------------------------------|
Bb|-14141414-1515151515151515-17171717-------------------|
Gb|------------------------------------------------------| 2X
Db|------------------------------------------------------| 
Ab|------------------------------------------------------|
Db|------------------------------------------------------|

Song Order:

Intro 4X
Verse 4X
Pre-Chorus 2X
Chorus 4X
Intro 2X
Verse 4X
Pre-Chorus 2X
Chorus 4X
Solo
Pre-Chorus 2X
Chorus 8X

End with this...

Eb|------------|
Bb|------------|
Gb|------------|
Db|-2~------5~-|
Ab|-2~------5~-|
Db|-2~------5~-|
Comments