Breaking Benjamin - Skin Chords & Tabs

 

Skin Chords & Tabs

Breaking Benjamin Chords & Tabs

Version: 2 Type: Bass Tab 0 ratings
1 star 2 stars 3 stars 4 stars 5 stars
comments

Skin Bass Tab

Tabbed by ryty51

Intro

|------------------
|------------------
|------------------    x3
|-00-00007-55-55558

then

|---------
|---------
|---------
|-00-00007

(silence)

Verse (same as intro)

|------------------           |---------
|------------------           |---------
|------------------    x3     |---------
|-00-00007-55-55558           |-00-00007

Chorus

|-----------------------
|-----------------------
|---9/----7/----45----45    x2
|-99----77----55----55--

then 

|-------------------          |--------------
|-------------------          |--------------
|-------------------    x4    |--------------
|-0000-7777-55555555          |-22222222-5555

Bridge

|-----------------------------
|-----------------------------
|-----------------------------
|-00-00007-55-55558-00-00007-7

Verse
[ Tab from: http://www.guitartabs.cc/tabs/b/breaking_benjamin/skin_btab_ver_2.html ]
|------------------          |---------
|------------------          |---------
|------------------    x3    |---------
|-00-00007-55-55558          |-00-00007

Chorus

|-----------------------
|-----------------------
|---9/----7/----45----45    x2
|-99----77----55----55--

then 
|-------------------          |--------------
|-------------------          |--------------
|-------------------    x4    |--------------
|-0000-7777-55555555          |-22222222-5555

Repeat Verse

|------------------          |---------
|------------------          |---------
|------------------    x3    |---------
|-00-00007-55-55558          |-00-00007

Chorus

|-----------------------
|-----------------------
|---9/----7/----45----45  x2
|-99----77----55----55--

then (ending)

|-------------------          |-------------
|-------------------          |-------------
|-------------------    x8    |-------------
|-0000-7777-55555555          |-0~----0~----

This is a pretty cool song, and really easy tp play. Have Fun!
Comments