Breaking Benjamin - Rain Chords & Tabs

 

Rain Chords & Tabs

Breaking Benjamin Chords & Tabs

Version: 6 Type: Tab 1 rating
1 star 2 stars 3 stars 4 stars 5 stars
comments

Rain Tab

Breaking Benjamin - Rain

Tuning: 
Guitar 1 - Drop C     CGCFAD
Guitar 2 - Standard   EADGBE

NOTE: the notes in parenthesis ARE meant to be played, however, the song also sounds
pretty good without them!  So, if you want to "easy" version, don't play the notes in
parenthesis - if you want to play it the "real" way, then play all the notes! Credit
again to "Hal and Leonard!" As usual, I've changed a few things here and there! 100%
correct!

11/13/05 - Added Guitar 2

Guitar 1 - Benjamin Burnley 
Guitar 2 - Aaron Fincke

Acoustic Throughout

INTRO
Guitar 1
D|----------------------------------------------|
A|----------------------------------------------|
F|7--7-7-7-7--7-7-7-7-7--7--7-7-7-7--7-7-7-7-7--|
C|4--4-4-4-4--4-4-4-4-4--4--4-4-4-4--7-7-7-7-7--|
G|0--0-0-0-0--x-x-x-x-x--0--0-0-0-0--5-5-5-5-5--|
C|0--0-0-0-0--5-5-5-5-5--0--0-0-0-0--5-5-5-5-5--|

Guitar 2
E|0--0-0-0-0--0-0-0-0-0--0--0-0-0-0--1-1-1-1-1--|
B|1--1-1-1-1--1-1-1-1-1--1--1-1-1-1--1-1-1-1-1--|
G|0--0-0-0-0--0-0-0-0-0--0--0-0-0-0--0-0-0-0-0--|
D|2--2-2-2-2--3-3-3-3-3--2--2-2-2-2--3-3-3-3-3--|
A|3--3-3-3-3--3-3-3-3-3--3--3-3-3-3--3-3-3-3-3--|
E|3--3-3-3-3-------------3--3-3-3-3-------------|

Guitar 1
D|-------------------------------------------------------------|
A|-------------------------------------------------------------|
F|7--7-7-7-7-(11)(11)(11)(11)(11)-(9)-(9)(9)(9)(9)--7-7-7-7-7--|
C|4--4-4-4-4--12--12--12--12--12---11--11-11-11-11--7-7-7-7-7--|
G|0--0-0-0-0--9---9---9---9---9----7---7--7--7--7---5-5-5-5-5--|
C|0--0-0-0-0--9---9---9---9---9----7---7--7--7--7---5-5-5-5-5--|

Guitar 2
E|0--0-0-0-0--0---0---0---0---0--------3--3--3--3---0-0-0-0-0--|
B|1--1-1-1-1--1---1---1---1---1--------3--3--3--3---1-1-1-1-1--|
G|0--0-0-0-0--2---2---2---2---2---(0)--0--0--0--0---0-0-0-0-0--|
D|2--2-2-2-2--2---2---2---2---2----0---0--0--0--0---3-3-3-3-3--|
A|3--3-3-3-3--0---0---0---0---0----2---2--2--2--2---3-3-3-3-3--|
E|3--3-3-3-3-----------------------3---3--3--3--3--------------|

VERSE is INTRO 3X

CHORUS - Here if you dont want to play the "4's," then just mute the
         string, but still play the open notes on the 2 top strings!
Guitar 1
D|-------------0--0--0--0--0------------------------------|
A|3--3-3-3-3---0--0--0--0--0---7---7--7-7-7-7-7---7-7-7-7-|
F|2--2-2-2-2--(4)(4)(4)(4)(4)--7---7--7-7-7-7-7---7-7-7-7-|
C|0--0-0-0-0---5--5--5--5--5---5---5--5-5-5-5-5---5-5-5-5-|
G|0--0-0-0-0---2--2--2--2--2---5---5--5-5-5-5-5---5-5-5-5-|
C|0--0-0-0-0---2--2--2--2--2---5---5--5-5-5-5-5---5-5-5-5-|

Guitar 2
E|0--0-0-0-0---0--0--0--0--0---0---0--0-0-0-0-0---0-0-0-0-|
B|1--1-1-1-1---1--1--1--1--1---1---1--1-1-1-1-1---1-1-1-1-|
G|0--0-0-0-0---2--2--2--2--2---2---2--2-2-2-2-2---2-2-2-2-|
D|2--2-2-2-2---0--0--0--0--0---3---3--3-3-3-3-3---3-3-3-3-|
A|3--3-3-3-3---0--0--0--0--0---3---3--3-3-3-3-3---3-3-3-3-|
E|3--3-3-3-3----------------------------------------------|

Guitar 1
D|-------------0--0-0-0-0--0-------------------------------|
A|3--3-3-3-3---0--0-0-0-0--0---7---7--7-7-7-7-7---7-7-7-7--|
F|2--2-2-2-2--(4)(4)(4)(4)(4)--7---7--7-7-7-7-7---7-7-7-7--|
C|0--0-0-0-0---5--5--5--5--5---5---5--5-5-5-5-5---5-5-5-5--|
G|0--0-0-0-0---2--2--2--2--2---5---5--5-5-5-5-5---5-5-5-5--|
C|0--0-0-0-0---2--2--2--2--2---5---5--5-5-5-5-5---5-5-5-5--|

Guitar 2
E|0--0-0-0-0---0--0--0--0--0---0---0--0-0-0-0-0---0-0-0-0--|
B|1--1-1-1-1---1--1--1--1--1---1---1--1-1-1-1-1---1-1-1-1--|
G|0--0-0-0-0---2--2--2--2--2---2---2--2-2-2-2-2---2-2-2-2--|
D|2--2-2-2-2---0--0--0--0--0---3---3--3-3-3-3-3---3-3-3-3--|
A|3--3-3-3-3---0--0--0--0--0---3---3--3-3-3-3-3---3-3-3-3--|
E|3--3-3-3-3-----------------------------------------------|

VERSE  2X

CHORUS 2X

BRIDGE
Guitar 1
D|--------------------------------------------------------------------|
A|--------------------------------------------------------------------|
F|(11)-(11)(11)(11)(11)-7-7---7--7-7-(6)---(6)(6)(6)(6)-7-7---7--7-7--|
C|-12---12--12--12--12--7-7---7--7-7--7-----7--7--7--7--7-7---7--7-7--|
G|-9----9---9---9---9---5-5---5--5-5--4-----4--4--4--4--5-5---5--5-5--|
C|-9----9---9---9---9---5-5---5--5-5--4-----4--4--4--4--5-5---5--5-5--|

Guitar 2
E|-0----0---0---0---0---1-1---1--1--1-0-----0--0--0--0--1-1---1--1-1--|
B|-1----1---1---1---1---1-1---1--1--1-0-----0--0--0--0--1-1---1--1-1--|
G|-0----0---0---0---0---0-0---0--0--0-0-----0--0--0--0--2-2---2--2-2--|
D|-2----2---2---2---2---3-3---3--3--3-2-----2--2--2--2--3-3---3--3-3--|
A|-0----0---0---0---0---3-3---3--3--3-2-----2--2--2--2--3-3---3--3-3--|
E|------------------------------------0-----0--0--0--0--1-1---1--1-1--|

Guitar 1
D|--------------------------------------------------------------------|
A|--------------------------------------------------------------------|
F|(11)-(11)(11)(11)(11)-7-7---7--7-7---9---9--9-9-9--7-7--7-7-7-7-----|
C|-12---12--12--12--12--7-7---7--7-7---7---7--7-7-7--5-5--5-5-5-5-----|
G|-9----9---9---9---9---5-5---5--5-5---7---7--7-7-7--5-5--5-5-5-5-----|
C|-9----9---9---9---9---5-5---5--5-5---7---7--7-7-7--5-5--5-5-5-5-----|

Guitar 2
E|-0----0---0---0---0---1-1---1--1-1---3---3--3-3-3--0-0--0-0-0-0-----|
B|-1----1---1---1---1---1-1---1--1-1---3---3--3-3-3--1-1--1-1-1-1-----|
G|-0----0---0---0---0---0-0---0--0-0---0---0--0-0-0--2-2--2-2-2-2-----|
D|-2----2---2---2---2---3-3---3--3-3---0---0--0-0-0--3-3--3-3-3-3-----|
A|-0----0---0---0---0---3-3---3--3-3---2---2--2-2-2--3-3--3-3-3-3-----|
E|-------------------------------------3---3--3-3-3-------------------|
[ Tab from: http://www.guitartabs.cc/tabs/b/breaking_benjamin/rain_tab_ver_6.html ]
Guitar 1
D|--------------------------------------------------------------------|
A|--------------------------------------------------------------------|
F|(11)-(11)(11)(11)(11)-7-7---7--7-7-(6)---(6)(6)(6)(6)-7-7---7--7-7--|
C|-12---12--12--12--12--7-7---7--7-7--7-----7--7--7--7--7-7---7--7-7--|
G|-9----9---9---9---9---5-5---5--5-5--4-----4--4--4--4--5-5---5--5-5--|
C|-9----9---9---9---9---5-5---5--5-5--4-----4--4--4--4--5-5---5--5-5--|

Guitar 2
E|-0----0---0---0---0---1-1---1--1-1--0-----0--0--0--0--1-1---1--1-1--|
B|-1----1---1---1---1---1-1---1--1-1--0-----0--0--0--0--1-1---1--1-1--|
G|-0----0---0---0---0---0-0---0--0-0--0-----0--0--0--0--2-2---2--2-2--|
D|-2----2---2---2---2---3-3---3--3-3--2-----2--2--2--2--3-3---3--3-3--|
A|-0----0---0---0---0---3-3---3--3-3--2-----2--2--2--2--3-3---3--3-3--|
E|------------------------------------0-----0--0--0--0--1-1---1--1-1--|

Guitar 1
D|--------------------------------------------------------------------|
A|--------------------------------------------------------------------|
F|(11)-(11)(11)(11)(11)-7-7---7--7-7---9---9--9-9-9-9-9-9-9-9-9-9-----|
C|-12---12--12--12--12--7-7---7--7-7---7---7--7-7-7-7-7-7-7-7-7-7-----|
G|-9----9---9---9---9---5-5---5--5-5---7---7--7-7-7-7-7-7-7-7-7-7-----|
C|-9----9---9---9---9---5-5---5--5-5---7---7--7-7-7-7-7-7-7-7-7-7-----|

Guitar 2
E|-0----0---0---0---0---1-1---1--1-1---3---3--3-3-3-3-3-3-3-3-3-3-|
B|-1----1---1---1---1---1-1---1--1-1---3---3--3-3-3-3-3-3-3-3-3-3-|
G|-0----0---0---0---0---0-0---0--0-0---0---0--0-0-0-0-0-0-0-0-0-0-|
D|-2----2---2---2---2---3-3---3--3-3---0---0--0-0-0-0-0-0-0-0-0-0-|
A|-0----0---0---0---0---3-3---3--3-3---2---2--2-2-2-2-2-2-2-2-2-2-|
E|-------------------------------------3---3--3-3-3-3-3-3-3-3-3-3-|

OUTRO/CHORUS 
Guitar 1
D|--------------------------------------------------------|
A|------------7--7---7-7-7-----------------7-7----7-7-7-7-|
F|7--7-7-7-7--7--7---7-7-7--7----7--7-7-7--7-7----7-7-7-7-|
C|7--7-7-7-7--5--5---5-5-5--7----7--7-7-7--5-5----5-5-5-5-|
G|5--5-5-5-5--5--5---5-5-5--5----5--5-5-5--5-5----5-5-5-5-|
C|0--0-0-0-0--5--5---5-5-5--0----0--0-0-0--5-5----5-5-5-5-|

Guitar 2
E|0--0-0-0-0--0--0---0-0-0--0----0--0-0-0--0-0----0-0-0-0-|
B|1--1-1-1-1--1--1---1-1-1--1----1--1-1-1--1-1----1-1-1-1-|
G|0--0-0-0-0--0--0---0-0-0--0----0--0-0-0--0-0----0-0-0-0-|
D|2--2-2-2-2--3--3---3-3-3--2----2--2-2-2--3-3----3-3-3-3-|
A|3--3-3-3-3--3--3---3-3-3--3----3--3-3-3--3-3----3-3-3-3-|
E|3--3-3-3-3----------------3----3--3-3-3-----------------|

Guitar 1
D|-------------------0--0----0--0--0-----------------------------|
A|3------3--3-3--3---0--0----0--0--0---7---7--7-7-7-7-7-7--x-----|
F|2------2--2-2--2--(4)(4)--(4)(4)(4)--7---7--7-7-7-7-7-7--x--9--|
C|0------0--0-0--0---5--5----5--5--5---5---5--5-5-5-5-5-5--x--7--|
G|0------0--0-0--0---2--2----2--2--2---5---5--5-5-5-5-5-5--x--7--|
C|0------0--0-0--0---2--2----2--2--2---5---5--5-5-5-5-5-5--x--7--|

Guitar 2
E|0------0--0-0--0---0--0----0--0--0---0---0--0-0-0-0-0-0--x--3--|
B|1------1--1-1--1---1--1----1--1--1---1---1--1-1-1-1-1-1--x--3--|
G|0------0--0-0--0---2--2----2--2--2---2---2--2-2-2-2-2-2--x--0--|
D|2------2--2-2--2---0--0----0--0--0---3---3--3-3-3-3-3-3--x--0--|
A|3------3--3-3--3---0--0----0--0--0---3---3--3-3-3-3-3-3--x--2--|
E|3------3--3-3--3--------------------------------------------3--|

Guitar 1
D|--------------------------------------------------------|
A|------------7--7---7-7-7-----------------7-7----7-7-7-7-|
F|7--7-7-7-7--7--7---7-7-7--7----7--7-7-7--7-7----7-7-7-7-|
C|7--7-7-7-7--5--5---5-5-5--7----7--7-7-7--5-5----5-5-5-5-|
G|5--5-5-5-5--5--5---5-5-5--5----5--5-5-5--5-5----5-5-5-5-|
C|0--0-0-0-0--5--5---5-5-5--0----0--0-0-0--5-5----5-5-5-5-|

Guitar 2
E|0--0-0-0-0--0--0---0-0-0--0----0--0-0-0--0-0----0-0-0-0-|
B|1--1-1-1-1--1--1---1-1-1--1----1--1-1-1--1-1----1-1-1-1-|
G|0--0-0-0-0--0--0---0-0-0--0----0--0-0-0--0-0----0-0-0-0-|
D|2--2-2-2-2--3--3---3-3-3--2----2--2-2-2--3-3----3-3-3-3-|
A|3--3-3-3-3--3--3---3-3-3--3----3--3-3-3--3-3----3-3-3-3-|
E|3--3-3-3-3----------------3----3--3-3-3-----------------|

Guitar 1
D|----------------------------------|------------------0--0---0---0--0---|
A|--7---7--7-7-7-7----7--7--7--7--7-|-3----3--3--3--3--0--0---0---0--0---|
F|--7---7--7-7-7-7----7--7--7--7--7-|-2----2--2--2--2-(4)(4)-(4)-(4)(4)--|
C|--5---5--5-5-5-7----5--5--5--5--5-|-0----0--0--0--0--5--5---5---5--5---|
G|--5---5--5-5-5-5----5--5--5--5--5-|-0----0--0--0--0--2--2---2---2--2---|
C|--5---5--5-5-5-5----5--5--5--5--5-|-0----0--0--0--0--2--2---2---2--2---|

Guitar 2
E|--0---0--0-0-0-0----0--0--0--0--0-|-0----0--0--0--0--0--0---0---0--0---|
B|--1---1--1-1-1-1----1--1--1--1--1-|-1----1--1--1--1--1--1---1---1--1---|
G|--2---2--2-2-2-2----2--2--2--2--2-|-0----0--0--0--0--2--2---2---2--2---|
D|--3---3--3-3-3-3----3--3--3--3--3-|-2----2--2--2--2--0--0---0---0--0---|
A|--3---3--3-3-3-3----3--3--3--3--3-|-3----3--3--3--3--0--0---0---0--0---|
E|----------------------------------|-3----3--3--3--3--------------------|

Guitar 1
D|---------------------------------|-------------------0--0--0--0--0----|
A|-7---7--7-7-7-7----7--7--7--7--7-|-3----3--3--3--3---0--0--0--0--0--7-|
F|-7---7--7-7-7-7----7--7--7--7--7-|-2----2--2--2--2--(4)(4)(4)(4)(4)-7-|
C|-5---5--5-5-5-5----5--5--5--5--5-|-0----0--0--0--0---5--5--5--5--5--5-|
G|-5---5--5-5-5-5----5--5--5--5--5-|-0----0--0--0--0---2--2--2--2--2--5-|
C|-5---5--5-5-5-5----5--5--5--5--5-|-0----0--0--0--0---2--2--2--2--2--5-|

Guitar 2
E|-0---0--0-0-0-0----0--0--0--0--0-|-0----0--0--0--0---0--0--1--1--1--0-|
B|-1---1--1-1-1-1----1--1--1--1--1-|-1----1--1--1--1---1--1--1--1--1--1-|
G|-2---2--2-2-2-2----2--2--2--2--2-|-0----0--0--0--0---2--2--2--2--2--2-|
D|-3---3--3-3-3-3----3--3--3--3--3-|-2----2--2--2--2---0--0--0--0--0--3-|
A|-3---3--3-3-3-3----3--3--3--3--3-|-3----3--3--3--3---0--0--0--0--0--3-|
E|---------------------------------|-3----3--3--3--3--------------------|


That's all -  such a sweet song!
Comments