Breaking Benjamin - Polyamorous Chords & Tabs

 

Polyamorous Chords & Tabs

Breaking Benjamin Chords & Tabs

Version: 6 Type: Tab 0 ratings
1 star 2 stars 3 stars 4 stars 5 stars
comments

Polyamorous Tab

First of all, this song is in Dropped D tuning.

Intro 
Guitar 1:
E------------------------------------|
B------------------------------------|
G------------------------------------|
D---8-8-8---10-10-10---4-4-4---4-4-4-|
A---8-8-8---10-10-10---4-4-4---4-4-4-|
D---8-8-8---10-10-10---4-4-4---4-4-4-|

Riff 1
Guitar 1:
E-----------------------------------------|
B-----------------------------------------|
G-----------------------------------------|
D---8---8-------------8---8---------------|
A---8---8---9-9-8-8---8---8---11-11-9-9---|
D---8---8-------------8---8---------------|

Verse Riff 1
Guitar 1:
E---------------------------------------------------------------------------|
B---------------------------------------------------------------------------|
G---------------------------------------------------------------------------|
D---------------------------------------------------------------------------|
A-----------9-9-8-8-----------9-9-8-8-----------8-8-9-9-----------9-9-8-8---|
D---8---8-------------4---4-------------6---6-------------1---1-------------|
   P.M++++++++++++++++++++++++++++++++++++++++++++++++++++++++++++++++++++

Verse Riff 2
Guitar 1:
E-----------------------------------------------------------------|
B-----------------------------------------------------------------|
G-----------------------------------------------------------------|
D---------------------------------------------------------1---4---|
A-----------9-9-8-8-----------9-9-8-8-----------8-8-9-9---1---4---|
D---8---8-------------4---4-------------6---6-------------1---4---|
   P.M++++++++++++++++++++++++++++++++++++++++++++++++++++++++++

Chorus Riff 1
Guitar 1:
E-----------------------------------|
B-----------------------------------|
G---6---6-8---8-6---6-11-11-10-10---|
D---6---6-8---8-6---6-11-11-10-10---|
A---4---4-6---6-4---4-9--9--8--8----|
D-----------------------------------|

Guitar 2:
E-----------------------------------|
B-----------------------------------|
G-----------------------------------|
D---0-------7-------5-------4-------|
A---0-------7-------5-------4-------|
D---0-------7-------5-------4-------|

Chorus Riff 2
Guitar 1:
E-------------------------------|
B-------------------------------|
G---6---6-8---8-6---6-6-6X------|
D---6---6-8---8-6---6-6-6X------|
A---4---4-6---6-4---4-4-4X------|
D-------------------------------|

Guitar 2:
E-----------------------------------|
B-----------------------------------|
G-----------------------------------|
D---0-------7-------5-------4-------|
A---0-------7-------5-------4-------|
D---0-------7-------5-------4-------|

Interlude Riff 1
Guitar 1:
E-------------------------------------------------------------------|
B-------------------------------------------------------------------|
G-------------------10------11--10--11------11--10--8-------11--10--|
D---8-------10--11--10------11--10--11------11--10--8-------11--10--|
A---8-------10--11--8-------9---8---9-------9---8---6-------9---8---|
D---8-------10--11--------------------------------------------------|
[ Tab from: http://www.guitartabs.cc/tabs/b/breaking_benjamin/polyamorous_tab_ver_6.html ]
Guitar 2:
E-------------------------------------------------------------------|
B-------------------------------------------------------------------|
G-------------------------------------------------------------------|
D---8-------10--11--3-------4---3---4-----------3---1-------4---3---|
A---8-------10--11--3-------4---3---4-----------3---1-------4---3---|
D---8-------10--11--3-------4---3---4-----------3---1-------4---3---|

Interlude Riff 2:
Guitar 1:
E--------------------------------------------------------------------
B--------------------------------------------------------------------
G--------------------------------------------------------------------
D---8-8-8-8-8-8-8-8-10-10-10-10-11-11-11-11-10-10-10-10-10-10-10-10--
A--------------------------------------------------------------------
D--------------------------------------------------------------------
   Slight P.M.++++++++++++++++++++++++++++++++++++++++++++++++++++++

E----------------------------------------------------------------
B----------------------------------------------------------------
G----------------------------------------------------------------
D---11-11-11-11-10-10-10-10-11-11-11-11-11-11-11-11-11-11-11-11--
A----------------------------------------------------------------
D----------------------------------------------------------------
   +++++++++++++++++++++++++++++++++++++++++++++++++++++++++++++ 

E--------------------------------------------------------|
B--------------------------------------------------------|
G--------------------------------------------------------|
D---10-10-10-10-8-8-8-8-8-8-8-8-11-11-11-11-10-10-10-10--|
A--------------------------------------------------------|
D--------------------------------------------------------|
   +++++++++++++++++++++++++++++++++++++++++++++++++++++

Bridge 
Guitar 1 and 2:
E-----------------------------------------------------|
B-----------------------------------------------------|
G-----------------------------------------------------|
D---6-6-6-6-6-6-6-6-6-6-6-6-6-6-6-6-6-6-6-6-6-6-6-6-6-|
A---6-6-6-6-6-6-6-6-6-6-6-6-6-6-6-6-6-6-6-6-6-6-6-6-6-|
D---4-4-4-4-4-4-4-4-4-4-4-4-4-4-4-4-4-4-4-4-4-4-4-4-4-|

Outro
Guitar 1
E-------------------------------------------------------------|
B-------------------------------------------------------------|
G-------------------------------------------------------------|
D---8---8-------------8---8---------------8---8-----------8---|
A---8---8---9-9-8-8---8---8---11-11-9-9---8---8---9-9-8-8-8---|
D---8---8-------------8---8---------------8---8-----------8---|

Riff Pattern:
Intro                     4x
Riff 1                    4x
Verse Riff 1              3x
Verse Riff 2              1x
Chorus Riff 1             2x
Chorus Riff 2             2x
Riff 1                    2x
Verse Riff 1              3x
Verse Riff 2              1x
Chorus Riff 1             2x
Chorus Riff 2             2x
Interlude Riff 1          2x
Interlude Riff 2          2x
Bridge Riff               1x
Chorus Riff 1             2x
Chorus Riff 2             2x
Riff 1                    1x
Outro                     1x

I recommend you listen to the song to get a feel for it.  
It will help you to interpret the tab better.

If you want lyrics, e-mail me at baileyac@bellsouth.net and let me know.
I'll post the lyrics.
Comments