Breaking Benjamin - Polyamorous Chords & Tabs

 

Polyamorous Chords & Tabs

Breaking Benjamin Chords & Tabs

Version: 4 Type: Tab 0 ratings
1 star 2 stars 3 stars 4 stars 5 stars
comments

Polyamorous Tab

^ = down pick
* = up pick 
Pm.. = palm mute
h = hammer on

Breaking Benjamin - Polyamorous

Intro
eb[------------------------
Bb[------------------------
Gb[------------------------
Db[4-4--4-7-7--7-5-5--0-5-5 (x4)
Ab[2-2--2-5-5--5-5-5--0-5-5
Db[-------0-0--0-5-5--0-5-5

Pre-verse
eb[------------------
Bb[------------------
Gb[------------------
Db[4-4-5544--4-4-7755 (x4)
Ab[2-2-------2-2-----
Db[------------------
       ^*^*      ^*^*
[ Tab from: http://www.guitartabs.cc/tabs/b/breaking_benjamin/polyamorous_tab_ver_4.html ]
Verse
eb[--------------------------------------
Bb[--------------------------------------
Gb[--------------------------------------
Db[----5544------5544------4455------5544
Ab[2-2-----------------------------------
Db[----------4-4-------5-5-------2-2-----
Pm.......................................

Chorus
eb[-------------------
Bb[-------------------
Gb[-------------------
Db[0--7--5-5-5-5\4-0h4 (x2)
Ab[0--7--5-5-5-5\4-0h4
Db[0--7--5-5-5-5\4-0h4

eb[-----------------------------
Bb[-----------------------------
Gb[-----------------------------
Db[0--7--5--5-5---0--4--5--5\4-0
Ab[0--7--5--5-5---0--4--5--5\4-0
Db[0--7--5--5-5---0--4--5--5\4-0
          Pm...

Thats pretty much it, and I know its better than the other version.
Any questions, my e-mail is drew_0069@hotmail.com
Comments