Breaking Benjamin - Polyamorous Chords & Tabs

 

Polyamorous Chords & Tabs

Breaking Benjamin Chords & Tabs

Version: 1 Type: Tab 3 ratings
1 star 2 stars 3 stars 4 stars 5 stars
comments

Polyamorous Tab

Breaking Benjamin

Polyamorous

dropped d tuning


Intro

w/ delay

e---------------------------------
b---------------------------------
g---------------------------------
D---9-------0---------------------
A---9-------0---------------------
D---9-------0---------------------

e-------------------------------------
b-------------------------------------
g------------------------------------- x4
D---9-9---0--0-0---0--5-5--0--5-5---0-
A---9-9---0--0-0---0--5-5--0--5-5---0-
D---9-9---0--0-0---0--5-5--0--5-5---0-

e---------------------------------
b---------------------------------
g--------------------------------- x8
D---9-9-----------9-9-------------
A---9-9-10-10-9-9-9-9-12-12-10-10-
D---9-9-----------9-9-------------

Verse

e-------------------------------------------------------------
b-------------------------------------------------------------
g------------------------------------------------------------- x4
D---9-9-----------4-4-------------5-5-----------2-2-----------
A---9-9-10-10-9-9-4-4-12-12-10-10-5-5-9-9-10-10-2-2-10-10-9-9-
D---9-9-----------4-4-------------5-5-----------2-2-----------

p.m............................................................

Chorus

e-----------------------------------------------------------------
b-----------------------------------------------------------------
g-----------------------------------------------------------------
D---0---7---5-5/4\5---0---7---5-5/4\5---0---7---5-x-x---0---7---5-
A---0---7---5-5/4\5---0---7---5-5/4\5---0---7---5-x-x---0---4---5-
D---0---7---5-5/4\5---0---7---5-5/4\5---0---7---5-x-x---0---4---5-


Bridge

This part is a little off...But its all I could figure out...
[ Tab from: http://www.guitartabs.cc/tabs/b/breaking_benjamin/polyamorous_tab.html ]
e-------------------------------------------
b-------------------------------------------
g------------------------------------------- x2
D---9---11---12---4---7---4---7---4---2---7-
A---9---11---12---4---5---4---5---4---2---5-
D---9---11---12---4---5---4---5---4---2---5-

e-----------------------------------------------------------------------------------------------------------------------------
b-----------------------------------------------------------------------------------------------------------------------------
g----------------------------------------------------------------------------------------------------------------------------- x2
D-----------------------------------------------------------------------------------------------------------------------------
A-----------------------------------------------------------------------------------------------------------------------------
D---9-9-9-9-9-9-9-9-11-11-11-11-12-12-12-12-4-4-4-4-4-4-4-4-5-5-5-5-4-4-4-4-5-5-5-5-5-5-5-5-5-5-5-5-5-4-4-4-4-4-2-2-2-2-2-2-2-

p.m............................................................................................................................

Then play that twice again but with no palm muting...

e----------------------------------------
b----------------------------------------
g----------------------------------------
D---0-0--0-5-5-0-0--0-5-5---0-0--0-5-5-0-
A---0-0--0-5-5-0-0--0-5-5---0-0--0-5-5-0-
D---0-0--0-5-5-0-0--0-5-5---0-0--0-5-5-0-
        p.m        p.m          p.m

Chorus

Outro

e---------------------------------------
b---------------------------------------
g--------------------------------------- x2
D---0---7---5---x-x---0---7---5---5/4\5-
A---0---4---5---x-x---0---4---5---5/4\5-
D---0---4---5---x-x---0---4---5---5/4\5-

End With

e----------------------------------------------------
b----------------------------------------------------
g----------------------------------------------------
D---9-9-----------9-9---------------9-9-----------9/-
A---9-9-10-10-9-9-9-9-12-12-10-10---9-9-10-10-9-9-9/-
D---9-9-----------9-9---------------9-9-----------9/-
Comments