Breaking Benjamin - Phase Chords & Tabs

 

Phase Chords & Tabs

Breaking Benjamin Chords & Tabs

Version: 1 Type: Bass Tab 0 ratings
1 star 2 stars 3 stars 4 stars 5 stars
comments

Phase Bass Tab

Breaking Benjamin
Phase

Tuning:  step down

Intro
|------------------
|------------------
|------------------  x4
|-5--8--3--5--0-3-0

then switch to
|------------------------------------
|------------------------------------
|------------------------------------  repeat until verse
|-5-5-5--8-8-8--3-3-3--5-5-5--0-0-3-0 

Verse
|------------------
|------------------
|------------------  x4
|-5--8--3--5--0-3-0

|------------------------------------
|------------------------------------
|------------------------------------  x4
|-5-5-5--8-8-8--3-3-3--5-5-5--0-0-3-0 

Chorus
|---------------------------------------
|---------------------------------------
|-------------------1-0-----------------
|-1-1-1-1--5-5-5-5------3--1-1-1-1--8--7

------------------------------------------------------------------------
------------------------------------------------------------------------
--------------------1-0-------------------------------------------------
--1-1-1-1--5-5-5-5------3--1-1-1-1--8-8-8-8--7-7-7-7--5-5-5-5--3-3-3--8/

-------------------------
-------------------------
-------------------------
-1-1-1-1---1-1-1--3-3-3-3

"Phase..."
|------------------------------------
|------------------------------------
|------------------------------------  x4
|-5-5-5--8-8-8--3-3-3--5-5-5--0-0-3-0 

Verse
|------------------
|------------------
|------------------  x4
|-5--8--3--5--0-3-0

|------------------------------------
|------------------------------------
|------------------------------------  x4
|-5-5-5--8-8-8--3-3-3--5-5-5--0-0-3-0 
[ Tab from: http://www.guitartabs.cc/tabs/b/breaking_benjamin/phase_btab.html ]
Chorus
|---------------------------------------
|---------------------------------------
|-------------------1-0-----------------
|-1-1-1-1--5-5-5-5------3--1-1-1-1--8--7

------------------------------------------------------------------------
------------------------------------------------------------------------
--------------------1-0-------------------------------------------------
--1-1-1-1--5-5-5-5------3--1-1-1-1--8-8-8-8--7-7-7-7--5-5-5-5--3-3-3--8/


-----------------------------------------------------
-----------------------------------------------------
-----------------------------------------------------
-1-1-1-1---1-1-1-1--1--1--1---1-1-1-1--1-1--1-1-3-3-3

Solo
|---------------------------------------------------------------------------
|---------------------------------------------------------------------------
|--1-1-1-1-1-1-1-1-1-1---------------1-1-1-1-1-1-1-1-1----------------------
|----------------------3-3-3-3-3-3-3-------------------3-3-3-3-3-3-3-3--1--3

|---------------------------------------------------------------
|---------------------------------------------------------------
|--1-1-1-1-1-1-1-1-1-1------------------1-1-1-1-1-1-1-1-1-------
|------------------------3-3-3-3-3-3-3----------------------8--7

Outro
|------------------------------------
|------------------------------------
|------------------------------------  x8
|-5-5-5--8-8-8--3-3-3--5-5-5--0-0-3-0 

"It's just a f***ing phase!"
|---------------------------
|---------------------------
|--------------------------- x7
|-5-5--5--5-5-5--5--5--8-8-3

|------------------
|------------------
|------------------
|-5-5--5--5-5-5--5/

End
Comments