Breaking Benjamin - Ordinary Man Chords & Tabs

 

Ordinary Man Chords & Tabs

Breaking Benjamin Chords & Tabs

Version: 1 Type: Tab 0 ratings
1 star 2 stars 3 stars 4 stars 5 stars
comments

Ordinary Man Tab

Artist: Breaking Benjamin
Song: Ordinary Man
Album: We Are Not Alone [Japanese Edition] (2004)
Tabbed by: Danny Carrera

Tuning: Drop C

Eb|-------------------------------|
Bb|-------------------------------|
Gb|-------------------------------| Intro
Dd|-3/5--55/8--8-1-1-1/3----------|
Ad|-3/5--55/8--8-1-1-1/3----------|
Dd|-3/5--55/8--8-1-1-1/3----------|

The verse is mainly bass and drums so it's not that important for guitar.

Eb|-------------|
Bb|-------------|
Gb|-------------| Pre-Chorus
Dd|-1-1-1-1-1/0-|
Ad|-1-1-1-1-1/0-|
Dd|-1-1-1-1-1/0-|


Eb|-------------------|-------------------|
Bb|-------------------|-------------------|
Gb|--333-555----------|-333-555-----------| Chorus
Dd|--333-555--1-1-1-1-|-333-555--1-1-1-1--|
Ad|--111-333--1-1-1-1-|-111-333--1-1-1-1--|
Dd|-----------1-1-1-1-|----------1-1-1-1--|

Eb|---------------------------------|
Bb|---------------------------------|
Gb|-----3-------5-------7---7-----7-| 
Dd|---3---3---5---5---7---7---7-----| Play this bar 2X
Ad|-1-------3-------5-----------5---|
Dd|---------------------------------|


Back to Intro

Then Chorus

Eb|----------------------------|
Bb|-----------------------10~--|
Gb|----------------------------|
Dd|-3/5--55/8--8-1-1-----------|
Ad|-3/5--55/8--8-1-1-----------|
Dd|-3/5--55/8--8-1-1-----------|

then..
[ Tab from: http://www.guitartabs.cc/tabs/b/breaking_benjamin/ordinary_man_tab.html ]
Eb|----------------------------|
Bb|----------------------------|
Gb|----------------------------| Guitar 1 Bridge
Dd|-0-00-000-00----------------| Repeat 10 times
Ad|-0-00-000-00----------------|
Dd|-0-00-000-00----------------|

Eb|------------------------------------------------------|
Bb|-9-7-6-3-2-3-2-9-7-6-3-2-10-9-12-14-15-14-17-19~------|
Gb|------------------------------------------------------| Guitar 2 Bridge
Dd|------------------------------------------------------|
Ad|------------------------------------------------------|
Dd|------------------------------------------------------|

Eb|-----------|
Bb|-----------|
Gb|-----------|
Dd|-1-1-1-1-1-|
Ad|-1-1-1-1-1-|
Dd|-1-1-1-1-1-|

Eb|---------------------------------|
Bb|---------------------------------|
Gb|-----3-------5-------7---7-----7-| 
Dd|---3---3---5---5---7---7---7-----| 4X
Ad|-1-------3-------5-----------5---|
Dd|---------------------------------|

Eb|-------------------|
Bb|-------------------|
Gb|-33-xx-55----------|
Dd|-33-xx-55--3-1-----|
Ad|-11-xx-33--3-1-hold|
Dd|-----------3-1-----|

Eb|-------------------------------|
Bb|-------------------------------|
Gb|-------------------------------| Outro
Dd|-3/5--55/8--8-1-1-1/3----------|
Ad|-3/5--55/8--8-1-1-1/3----------|
Dd|-3/5--55/8--8-1-1-1/3----------|

Eb|------------|
Bb|------------|
Gb|------------| 
Dd|-5\1--------|
Ad|-5\1--------|
Dd|-5\1--------|

This tab is 100% right.  I spent hours and hours trying to get it to sound right and finally did!
Comments