Breaking Benjamin - No Games Chords & Tabs

 

No Games Chords & Tabs

Breaking Benjamin Chords & Tabs

Version: 3 Type: Tab 0 ratings
1 star 2 stars 3 stars 4 stars 5 stars
comments

No Games Tab

Intro:
eb-------------------------------------------------------
Bb-------------------------------------------------------
Gb-------------------------------------------------------
Db------7-----9-(9)/11----------7------6-(6)/7-----------
Ab----4-----7-----------------4------2-------------------
Db--4-----7------0----------4------2------0--------------

Verse:
eb----------------------------0--------------------------
Bb----------------------------10-------------------------
Gb-------------------------------------------------------
Db------7------9------11--11-----------------------------x3
Ab----4------7------9------------------------------------
Db--4------7------9--------------------------------------
[ Tab from: http://www.guitartabs.cc/tabs/b/breaking_benjamin/no_games_tab_ver_3.html ]
eb-------------------------------------------------------
Bb----------------------------0--------------------------
Gb--------------------------6---6------------------------
Db------7------6------7---7-------7----------------------
Ab----4------2------0------------------------------------
Db--4------2------0--------------------------------------

Pre-chorus:
eb---------------------
Bb---------------------
Gb---------------------
Db--7776667777777777---x4
Ab--4442220000000000---
Db--4442220000000000---              

Chorus:
eb-------------------------------------
Bb-------------------------------------
Gb-------------------------------------
Db--77779977444466444444444455557777---
Ab--77777777444444442222222233335555---
Db--7777777744444444-------------------

And that's all I know so far.  There's an interlude with a violin in it,
and I haven't figured that out.  But this is all right, I'm positive.  Enjoy.
Comments