Breaking Benjamin - Medicate Chords & Tabs

 

Medicate Chords & Tabs

Breaking Benjamin Chords & Tabs

Version: 1 Type: Bass Tab 0 ratings
1 star 2 stars 3 stars 4 stars 5 stars
comments

Medicate Bass Tab

Medicate~ Breaking Bejamin

Tabbed By : intermisine
e-mail: alexatwell@squinkles.com

Tuning: standard

intro:
G|---------------------------------------------------------------------------|
D|---------------------------------------------------------------------------|
A|----------------4-4-4-4----------------------------------------------------|
E|2-2-2-2-6-6-6-6---------4-4-4-4--------------------------------------------|

verse:
G|---------------------------------------------------------------------------|
D|---------------------------------------------------------------------------|
A|---------------------------------------------------------------------------|
E|0--0-2--2-5--5-4-5p4-0-----------------------------------------------------|

pre chorus:
G|---------------------------------------------------------------------------|
D|---------------------------------------------------------------------------|
A|---------------------------------------------------------------------------|
E|5-5-5-5-5-5-5-5-5-5-5-5-5-5-5/7\-------------------------------------------|
[ Tab from: http://www.guitartabs.cc/tabs/b/breaking_benjamin/medicate_btab.html ]
chorus:
G|---------------------------------------------------------------------------|
D|---------------------------------------------------------------------------|
A|--------------------------------4-4-4-4-4-4-7-6-0-0-0-0-0-0-0-0------------|
E|0-0-0-0-0-0-2-4-6-6-6-6-6-6-6-6--------------------------------------------|


modified chorus: "run away!"
G|---------------------------------------------------------------------------|
D|---------------------------------------------------------------------------|
A|------------------------4-4--4-4-4-6-0-0-0-0-0-0-2-0-----------------------|
E|0-0--0-0-0--6-6--6-6-6-----------------------------------------------------|


heavy verse: 
G|---------------------------------------------------------------------------|
D|---------------------------------------------------------------------------|
A|---------------------------------------------------------------------------|
E|6-4-6-4-2-4-2-4-----------------------------------------------------------|

outro:
G|---------------------------------------------------------------------------|
D|---------------------------------------------------------------------------|
A|---------------------------------------------------------------------------|
E|0*-------------------------------------------------------------------------|

/ slide up
\ slide down
p pull off
* let ring

im pretty sure its all right but if anything doesnt sound right just move it up
or down one fret and it should be right. enjoy n' rate.
Comments