Breaking Benjamin - Ladybug Chords & Tabs

 

Ladybug Chords & Tabs

Breaking Benjamin Chords & Tabs

Version: 1 Type: Tab 0 ratings
1 star 2 stars 3 stars 4 stars 5 stars
comments

Ladybug Tab

INTRO

Lead Guitar
E - - - - - - - - - - - - - - - - - -
B - - - - - - - - - - - - - - - - - -
G - - - - - - - - - - - - - - - - - -
D - 9-9-11-9-9-9-11-9-9-9-11-9-9-9-11
A - - - - - - - - - - - - - - - - - -
E - - - - - - - - - - - - - - - - - - x 4


Rhthym Guitar
E - - - - - - - - - - - - - - - - - - - - - -
B - - - - - - - - - - - - - - - - - - - - - -
G - - - - - - - - - - - - - - - - - - - - - - 
D - 6-6-6-6-6-6-6-6-6-6-6-6-6-6-6-6 /- 8- - - 
A - 6-6-6-6-6-6-6-6-6-6-6-6-6-6-6-6 /- 8- - -
E - 4-4-4-4-4-4-4-4-4-4-4-4-4-4-4-4 /- 6- - - X 4


VERSE 1 + 2

Rhthym Guitar
E - - - - - - - - - - - - - - - - - - - - - - - - - - - - - - - -
B - - - - - - - - - - - - - - - - - - - - - - - - - - - - - - - -
G - - - - - - - - - - - - - - - - - - - - - - - - - - - - - - - -
D 6-6-6-6-6-6-6-6-6-6 /- 8 - - |- 0-0-0-0-0-0-0-0-4-4-4-4-4-4-4-4
A 6-6-6-6-6-6-6-6-6-6 /- 8 - - |- 0-0-0-0-0-0-0-0-4-4-4-4-4-4-4-4
E 4-4-4-4-4-4-4-4-4-4 /- 6 -x 3|- 0-0-0-0-0-0-0-0-2-2-2-2-2-2-2-2
  
 |------------------------ palm muted --------------------------|	

Lead Guitar
E - - - - - - - - - - - - - - - - - -
B - - - - - - - - - - - - - - - - - -
G - - - - - - - - - - - - - - - - - -
D - 9-9-11-9-9-9-11-9-9-9-11-9-9-9-11
A - - - - - - - - - - - - - - - - - -
E - - - - - - - - - - - - - - - - - -

PRE-CHORUS
[ Tab from: http://www.guitartabs.cc/tabs/b/breaking_benjamin/ladybug_tab.html ]
E - - - - - - - - - - - - - - - - - - - - - - - - - - - -
B - - - - - - - - - - - - - - - - - - - - - - - - - - - -
G - - - - - - - - - - - - - - - - - - - - - - - - - - - -
D - 0-0-0-0-0-0-0-0-0-0-0-0-0-0-0-0-4-4-4-4-4-4-4-4-4-4-4-
A - 0-0-0-0-0-0-0-0-0-0-0-0-0-0-0-0-4-4-4-4-4-4-4-4-4-4-4-
E - 0-0-0-0-0-0-0-0-0-0-0-0-0-0-0-0-2-2-2-2-2-2-2-2-2-2-2-

Chorus
E - - - - - - - - - - - - - - - - - - - - - - - - - - - - - - -
B - - - - - - - - - - - - - - - - - - - - - - - - - - - - - - -
G - - - - - - - - - - - - - - - - - - - - - - - - - - - - - - -
D -9-9-9-9-9- 11-11-11-11-11-11- 13-13-13-13-13- 14-14-14-14-14
A -9-9-9-9-9- 11-11-11-11-11-11- 13-13-13-13-13- 14-14-14-14-14 
E -7-7-7-7-7- 9 -9 -9 -9 -9 -9 - 11-11-11-11-11- 12-12-12-12-12  X 4

INTERLUDE

E - - - - - - - - - - - - - - - - - - - - - - - - - - - - - - -  - - - - - - - - - -
B - - - - - - - - - - - - - - - - - - - - - - - - - - - - - - -  - - - - - - - - - -
G - - - - - - - - - - - - - - - - - - - - - - - - - - - - - - -  - - - - - - - - - -
D - 11-11-|-11-11- 6-6-6-6-6-6-6-6-/-8- -| 11-11-11-11-11-11-11- 13-13-13-13-13-13 -
A - 11-11-|-11-11- 6-6-6-6-6-6-6-6-/-8- -| 11-11-11-11-11-11-11- 13-13-13-13-13-13 -
E - 9 -9 -|-9 -9 - 4-4-4-4-4-4-4-4-/-6-X3| 9 -9 -9 -9 -9 -9 -9 - 11-11-11-11-11-11 - 

END CHROUS

E - - - - - - - - - - - - - - - - - - - - - - - - - - - - - -
B - - - - - - - - - - - - - - - - - - - - - - - - - - - - - -
G - - - - - - - - - - - - - - - - - - - - - - - - - - - - - -
D -9-9-9-9-9- 11-11-11-11-11- 13-13-13-13-13-||-9-9-9-9-9-9-9-
A -9-9-9-9-9- 11-11-11-11-11- 13-13-13-13-13-||-9-9-9-9-9-9-9-
E -7-7-7-7-7- 9 -9 -9 -9 -9 - 11-11-11-11-11-||-7-7-7-7-7-7-7-
					      |--PALM MUTED--|
Comments