Breaking Benjamin - Forever Chords & Tabs

 

Forever Chords & Tabs

Breaking Benjamin Chords & Tabs

Version: 2 Type: Tab 0 ratings
1 star 2 stars 3 stars 4 stars 5 stars
comments

Forever Tab

so, if you want to know how to play this song for REAL...here it is, in standard
tuning... alot of you may think that the guitar is also playing the bass type notes,
but it is not. if it were to do that, it would have to play the high notes a string
down, thus , giving it a twangy sound, compared to the drowning sound that the thicker
string gives it.:)ill soon be submitting the rest of the song, its really hard to hear
the chords being played during the chorus though...thers alot of accompaniament.

intro guitar 1
[ Tab from: http://www.guitartabs.cc/tabs/b/breaking_benjamin/forever_tab_ver_2.html ]
e-------------|------------|------------|------------|
b---8--8------|--8--8------|------------|------------|
g---8--8------|--8--8------|---7--8-----|---7--8-----|
d-------------|------------|---8--8-----|---8--8-----|      
a-------------|------------|------------|------------|
E-------------|------------|------------|------------|


intro guitar 2, enter after guitar 1 plays once

e-------------|------------|------------|------------|
b-------11--8-|------11--8-|------------|------------|
g---8-8-------|--8-8-------|------10-8--|------10-8--|
d----8--------|---8--------|---8-8------|---8-8------|
a-------------|------------|----6-------|----6-------|
E-------------|------------|------------|------------|
Comments