Breaking Benjamin - Forever Chords & Tabs

 

Forever Chords & Tabs

Breaking Benjamin Chords & Tabs

Version: 1 Type: Chords 0 ratings
1 star 2 stars 3 stars 4 stars 5 stars
comments

Forever Chords

   
Artist: Breaking Benjamin
Song: Forever
Album: Saturate
Tabbed by: Jahmper (jahmper@gmail.com)

Tuning (low to high):  E, a, d, g, b, E

Intro

    Cadd9                     Em  Am       Em  Am
e-------------|------------|------------|------------|
b---3--3------|--3--3------|---0--1-----|---0--1-----|
g---0--0------|--0--0------|---0--2-----|---0--2-----|
d---2--2------|--2--2------|---2--2-----|---2--2-----|      
a---3--3------|--3--3------|------------|------------|
E-------------|------------|------------|------------|


(same for intro and for verses)
    Cadd9                       Em
e---------------------------|---------------------------|
b---------3------------3----|---------0------------0----| 
g-------0----0-------0----0-|-------0----0-------0----0-|  (1)
d-----2------------2--------|-----2------------2--------|      
a---3------------3----------|---2------------2----------|
E---------------------------|---------------------------|
 

Verse1.
[ Tab from: http://www.guitartabs.cc/tabs/b/breaking_benjamin/forever_crd.html ]
(1)
Do you know, I could never leave you?
And you know, I could never beat you?
And if I, I could never find you 
Never mind, I would not forget you. 

Chorus.

C     Em         Am      
Can I stay alive forever?
C     Em         Am 
Can I stay alive forever?
g     Em         Am 
Can I stay alive forever?
C
Forever.

Verse 2.

(1)
Can I feel a chemical reaction?
Cause I feel a hideous attraction 
Could we share a poison apple?
Could it be maniacal and awful? 

Chorus.

C     Em         Am
Can I stay alive forever?
C     Em         Am 
Can I stay alive forever? 
g     Em         Am
Can I stay alive forever?
Cadd9    E
Forever. Forever 
C    Em    Am
Stay alive forever 
      F
Forever 
           C
Stay alive forever
Em         Am
Stay alive forever
           C
Stay alive forever
Em         F
Stay alive forever

Outro:
C g Am F Am F

C    Em    Am
Stay alive forever
Comments