Breaking Benjamin - Crawl Chords & Tabs

 

Breaking Benjamin Chords & Tabs

Version: 1 Type: Tab 0 ratings
1 star 2 stars 3 stars 4 stars 5 stars
comments

Crawl Tab

Track #3: Crawl (From Breaking Benjamin's Dear Agony album)
One of my faves on the new album,it's not fully complete, but I got about 90% of it done 
be posting up the missing lead parts ASAP)
It took me a while to tab this, plus this is one of my first tabs, so enjoy!

Tuning: Drop C (CGCFAD)

KEY:
h=hammer on
p=pull off
/=slide up
\=slide down
PM=palm mute

Intro
Rhythm guitar Repeat 2x
(strumming throughout)

|---------------------------------------------------------------|
|---------------------------------------------------------------|
|---------------------------------------------------------------|
|--5---0---1---8---0-0-8-7---5---0---1---8---0-0----------------|
|--5---0---1---8---0-0-8-7---5---0---1---8---0-0----------------|
|--5---0---1---8---0-0-8-7---5---0---1---8---0-0----------------|

|----------------------------------------------------------------|
|----------------------------------------------------------------|
|----------------------------------------------------------------|
|--0--5---0---1---8---0-0--10p8---1-1-1---1-1-1---1-0------------|
|--0--5---0---1---8---0-0--10p8---1-1-1---1-1-1---1-0------------|
|--0--5---0---1---8---0-0--10p8---1-1-1---1-1-1---1-0------------|


Lead Guitar (2nd time through)
|----------------------------------------------------------------|
|-----16-15-------13-15-/18-16-15------13-15------16-15----------|
|--12----------15-------------------15---------12----------------|
|----------------------------------------------------------------|
|----------------------------------------------------------------|
|----------------------------------------------------------------|

|----------------------------------------------------------------|
|-----13-15------------------------------------------------------|
|--15-------15-14------------------------------------------------|
|----------------------------------------------------------------|
|----------------------------------------------------------------|

Verse NOTE: I am still working on the clean part so here are the chords, it still works 
just letting these ring out.

|----------------------------------------------------------------|
|----------------------------------------------------------------|
|----------------------------------------------------------------|
|---5-----3------1------0----------------------------------------|
|---5-----3------1------0----------------------------------------|
|---5-----3------1------0----------------------------------------|

Pre-Chorus NOTE: Again Im still working on the lead for this part, but here is the rhythm
|----------------------------------------------------------------|
|----------------------------------------------------------------|
|----------------------------------------------------------------|
|5-5-5-5-5-5-5-5--3-3-3-3-3-3-3-3--1-1-1-1-1-1-1-1-3-1-1-1-1-1-1-|
|5-5-5-5-5-5-5-5--3-3-3-3-3-3-3-3--1-1-1-1-1-1-1-1-3-1-1-1-1-1-1-|
|5-5-5-5-5-5-5-5--3-3-3-3-3-3-3-3--1-1-1-1-1-1-1-1-3-1-1-1-1-1-1-|
PM ...................................................................


|----------------------------------------------------------------|
|----------------------------------------------------------------|
|----------------------------------------------------------------|
|-1--0--3--0-----------------------------------------------------|
|-1--0--3--0-----------------------------------------------------|
|-1--0--3--0-----------------------------------------------------|
Repeat pre-chorus


Chorus(1st part)
Rhythm Guitar
|---------------------------------------------------------------|
|---------------------------------------------------------------|
|---------------------------------------------------------------|
|-5-5-5-5--3-3-3-3-1--1-1--1--1-3-------------------------------|
|-5-5-5-5--3-3-3-3-1--1-1--1--1-3-------------------------------|
|-5-5-5-5--3-3-3-3-1--1-1--1--1-3-------------------------------|

Lead Guitar
|----------------------------------------------------------------|
|----------------------------------------------------------------|
|----------5----------------7------------------------------------|
|--5-8-7-5---8-7-5--5-8-7-5---8-7-5------------------------------|
|----------------------------------------------------------------|
|----------------------------------------------------------------|
Repeat

(2nd part)
Rhythm
|----------------------------------------------------------------|
|----------------------------------------------------------------|
|----------------------------------------------------------------|
|-5-5-5-5--8-8-8--3-3-3-3--1-1-3---------------------------------|
|-5-5-5-5--8-8-8--3-3-3-3--1-1-3---------------------------------|
|-5-5-5-5--8-8-8--3-3-3-3--1-1-3---------------------------------|

Lead
|-------10---11---10-----------10---8----8---10------------------|
|--8--11---11---8----8----8--11---11---11------------------------|
|----------------------------------------------------------------|
|----------------------------------------------------------------|
|----------------------------------------------------------------|
|----------------------------------------------------------------|
Repeat

Post-Chorus (strumming throughout)
|------------------------------------------------------------------|
|------------------------------------------------------------------|
|------------------------------------------------------------------|
|--5---0---1---8---0-0-8-7---5---0---1---8---0-0-------------------|
|--5---0---1---8---0-0-8-7---5---0---1---8---0-0-------------------|
|--5---0---1---8---0-0-8-7---5---0---1---8---0-0-------------------|


|----------------------------------------------------------------|
|----------------------------------------------------------------|
|----------------------------------------------------------------|
|--0--5---0---1---8---0-0--10p8---1-1-1---1-1-1---1-0------------|
|--0--5---0---1---8---0-0--10p8---1-1-1---1-1-1---1-0------------|
|--0--5---0---1---8---0-0--10p8---1-1-1---1-1-1---1-0------------|

|-----16-15-------13-15-/18-16-15------13-15------16-15--------------|
|--12-----------15-------------------15----------12------------------|
|--------------------------------------------------------------------|
|--------------------------------------------------------------------|
|--------------------------------------------------------------------|

[ Tab from: http://www.guitartabs.cc/tabs/b/breaking_benjamin/crawl_tab.html ]
|----------------------------------------------------------------|
|-----13-15------------------------------------------------------|
|--15-------15-14------------------------------------------------|
|----------------------------------------------------------------|
|----------------------------------------------------------------|
|----------------------------------------------------------------|

Verse 2
|----------------------------------------------------------------|
|----------------------------------------------------------------|
|----------------------------------------------------------------|
|---5-----3------1------0----------------------------------------|
|---5-----3------1------0----------------------------------------|
|---5-----3------1------0----------------------------------------|

Pre-Chorus 2
|----------------------------------------------------------------|
|----------------------------------------------------------------|
|----------------------------------------------------------------|
|5-5-5-5-5-5-5-5--3-3-3-3-3-3-3-3--1-1-1-1-1-1-1-1-3-1-1-1-1-1-1-|
|5-5-5-5-5-5-5-5--3-3-3-3-3-3-3-3--1-1-1-1-1-1-1-1-3-1-1-1-1-1-1-|
|5-5-5-5-5-5-5-5--3-3-3-3-3-3-3-3--1-1-1-1-1-1-1-1-3-1-1-1-1-1-1-|
PM ...................................................................


Chorus 2
(1st part)
|----------------------------------------------------------------|
|----------------------------------------------------------------|
|----------------------------------------------------------------|
|-5-5-5-5--3-3-3-3-1--1-1--1--1-3--------------------------------|
|-5-5-5-5--3-3-3-3-1--1-1--1--1-3--------------------------------|
|-5-5-5-5--3-3-3-3-1--1-1--1--1-3--------------------------------|

|----------------------------------------------------------------|
|----------------------------------------------------------------|
|----------5----------------7------------------------------------|
|--5-8-7-5---8-7-5--5-8-7-5---8-7-5------------------------------|
|----------------------------------------------------------------|
|----------------------------------------------------------------|
Repeat

(2nd part)
|----------------------------------------------------------------|
|----------------------------------------------------------------|
|----------------------------------------------------------------|
|-5-5-5-5--8-8-8--3-3-3-3--1-1-3---------------------------------|
|-5-5-5-5--8-8-8--3-3-3-3--1-1-3---------------------------------|
|-5-5-5-5--8-8-8--3-3-3-3--1-1-3---------------------------------|


|-------10---11---10-----------10---8----8---10------------------|
|--8--11---11---8----8----8--11---11---11------------------------|
|----------------------------------------------------------------|
|----------------------------------------------------------------|
|----------------------------------------------------------------|
|----------------------------------------------------------------|

Riff into Bridge
|----------------------------------------------------------------|
|----------------------------------------------------------------|
|----------------------------------------------------------------|
|---5------------------------------------------------------------|
|---5------------------------------------------------------------|
|---5-------0-7h8--0-3h5-0-3-------------------------------------|


Bridge Note: Once again, no lead part for this, many apologies. I'll get it up ASAP

|----------1-----------------------------------------------------|
|----------1-----------------------------------------------------|
|----------------------------------------------------------------|
|-1-0--1-0---3-1--3-1--------------------------------------------|
|-1-0--1-0---3-1--3-1--------------------------------------------|
|-1-0--1-0---3-1--3-1--------------------------------------------|
Repeat 4x

|----------------------------------------------------------------|
|----------------------------------------------------------------|
|----------------------------------------------------------------|
|-5-----1-3------------------------------------------------------|
|-5-----1-3------------------------------------------------------|
|-5-----1-3------------------------------------------------------|

Chorus 3
|----------------------------------------------------------------|
|----------------------------------------------------------------|
|----------------------------------------------------------------|
|-5-5-5-5--3-3-3-3-1--1-1--1--1-3--------------------------------|
|-5-5-5-5--3-3-3-3-1--1-1--1--1-3--------------------------------|
|-5-5-5-5--3-3-3-3-1--1-1--1--1-3--------------------------------|

|----------------------------------------------------------------|
|---8-8--6-6--10-10--8-8--10-10--11------------------------------|
|----------------------------------------------------------------|
|----------------------------------------------------------------|
|----------------------------------------------------------------|
|----------------------------------------------------------------|

|----------------------------------------------------------------|
|----------------------------------------------------------------|
|----------------------------------------------------------------|
|-5-5-5-5--8-8-8--3-3-3-3--1-1-3---------------------------------|
|-5-5-5-5--8-8-8--3-3-3-3--1-1-3---------------------------------|
|-5-5-5-5--8-8-8--3-3-3-3--1-1-3---------------------------------|

|-------10---11---10-----------10---8----8---10------------------|
|--8--11---11---8----8----8--11---11---11------------------------|
|----------------------------------------------------------------|
|----------------------------------------------------------------|
|----------------------------------------------------------------|
|----------------------------------------------------------------|

Outro
|----------------------------------------------------------------|
|----------------------------------------------------------------|
|----------------------------------------------------------------|
|--5-0-1-0--X-X-0-5-0-1-0----------------------------------------|
|--5-0-1-0--X-X-0-5-0-1-0----------------------------------------|
|--5-0-1-0--X-X-0-5-0-1-0---8p7-5p3------------------------------|
Repetez and end             ^not really sure about this little pull...

|----------------------------------------------------------------|
|----------------------------------------------------------------|
|----------------------------------------------------------------|
|-5-5-5-5-------5-5-5-5------------------------------------------|
|-5-5-5-5-------5-5-5-5------------------------------------------|
|-5-5-5-5-------5-5-5-5------------------------------------------|

So there you are! Please feel free to post up any corrections, or missing parts. Thanks!
Comments
Breaking Benjamin chords | Breaking Benjamin Crawl tab