Breaking Benjamin - Breakdown Chords & Tabs

 

Breakdown Chords & Tabs

Breaking Benjamin Chords & Tabs

Version: 7 Type: Tab 0 ratings
1 star 2 stars 3 stars 4 stars 5 stars
comments

Breakdown Tab

this is the intro it's not converted from piano....cause it usualy doens't sound the same
and it's eay to play and the sound is the same.



----------------5-4-5-4-----------------5-4-5-4--------------------------
-------------------------2--44--55----------------2-44-55----------------
-------------------------------------------------------------------------
-------------------------------------------------------------------------
-------------------------------------------------------------------------
-------------------------------------------------------------------------

[ Tab from: http://www.guitartabs.cc/tabs/b/breaking_benjamin/breakdown_tab_ver_7.html ]
between the riffs like the first verse and the second verse you might hear

----------5-4-5-4----------------------------------------------------------
--------------------2------------------------------------------------------
---------------------------------------------------------------------------
---------------------------------------------------------------------------
---------------------------------------------------------------------------
---------------------------------------------------------------------------
u can add a vibrato after the two or maybe a bend.....just listen to the track..
Comments