Breaking Benjamin - Breakdown Chords & Tabs

 

Breakdown Chords & Tabs

Breaking Benjamin Chords & Tabs

Version: 6 Type: Tab 0 ratings
1 star 2 stars 3 stars 4 stars 5 stars
comments

Breakdown Tab

tune to c tuning like most of there songs


play after piano intro
e -----------------------------------------------------------|
b -----------------------------------------------------------|
g -----------------------------------------------------------|
d --4-4-4-7--4-4-4-5-----------------------------------------| x 4
a --4-4-4-7--4-4-4-5-----------------------------------------|
d --4-4-4-7--4-4-4-5-----------------------------------------|

at end let 2's ring

e -----------------------------------------------------------|
b -----------------------------------------------------------|
g -----------------------------------------------------------|
d -4~~~~~~~~~~~~~--------------------------------------------|
a -4~~~~~~~~~~~~~--------------------------------------------|
d -4~~~~~~~~~~~~~--------------------------------------------|

e -----------------------------------------------------------|
b ---14-13-14-13---------------------------------------------|
g ---------------11------------------------------------------|
d -----------------------------------------------------------| x6
a -----------------------------------------------------------|
d -----------------------------------------------------------|

e -----------------------------------------------------------|
b -----------------------------------------------------------| 2 times pm
g -----------------------------------------------------------|
d -44-4-44-4-77-7-77-7-77-7-77-7-99-9-77-7-------------------|
a -44-4-44-4-77-7-77-7-55-5-55-5-99-9-55-5-------------------|
d -44-4-44-4-77-7-77-7-----------99-9------------------------|

e -----------------------------------------------------------|
b -----------------------------------------------------------|
g -----------------------------------------------------------|
d -77777777-44444444-33333333-434346-------------------------|
a -77777777-44444444-33333333-434346-------------------------|
d -77777777-44444444-33333333-434346-------------------------|

e -----------------------------------------------------------|
b -----------------------------------------------------------|
g -----------------------------------------------------------|
d -77777777-44444444-33-3-3-3-434346-------------------------|
a -77777777-44444444-33-3-3-3-434346-------------------------|
d -77777777-44444444-33-3-3-3-434346-------------------------|

e -----------------------------------------------------------|
b -----------------------------------------------------------|
g -----------------------------------------------------------|
d --4-4-4-7--4-4-4-5-----------------------------------------| x 4
a --4-4-4-7--4-4-4-5-----------------------------------------|
d --4-4-4-7--4-4-4-5-----------------------------------------|

e -----------------------------------------------------------|
b -----------------------------------------------------------|
g -----------------------------------------------------------|
d -4~~~~~~~~~~~~~--------------------------------------------|
a -4~~~~~~~~~~~~~--------------------------------------------|
d -4~~~~~~~~~~~~~--------------------------------------------|
[ Tab from: http://www.guitartabs.cc/tabs/b/breaking_benjamin/breakdown_tab_ver_6.html ]
e -----------------------------------------------------------|
b ---14-13-14-13---------------------------------------------|
g ---------------11------------------------------------------|
d -----------------------------------------------------------| x6
a -----------------------------------------------------------|
d -----------------------------------------------------------|

e -----------------------------------------------------------|
b -----------------------------------------------------------| 2 times pm
g -----------------------------------------------------------|
d -44-4-44-4-77-7-77-7-77-7-77-7-99-9-77-7-------------------| 1 w/o pm
a -44-4-44-4-77-7-77-7-55-5-55-5-99-9-55-5-------------------|
d -44-4-44-4-77-7-77-7-----------99-9------------------------|

e -----------------------------------------------------------|
b -----------------------------------------------------------|
g -----------------------------------------------------------|
d -77777777-44444444-33333333-434346-------------------------|
a -77777777-44444444-33333333-434346-------------------------|
d -77777777-44444444-33333333-434346-------------------------|

e -----------------------------------------------------------|
b -----------------------------------------------------------|
g -----------------------------------------------------------|
d -77777777-44444444-33-3-3-3-434346-------------------------|
a -77777777-44444444-33-3-3-3-434346-------------------------|
d -77777777-44444444-33-3-3-3-434346-------------------------|

e -----------------------------------------------------------|
b -----------------------------------------------------------|
g -----------------------------------------------------------|
d -4~~~~~~~~~~~~~--------------------------------------------|
a -4~~~~~~~~~~~~~--------------------------------------------|
d -4~~~~~~~~~~~~~--------------------------------------------|

e -----------------------------------------------------------|
b -----------------------------------------------------------| x4 pm
g -----------------------------------------------------------|
d -44-4-44-4-44-4-5456---------------------------------------|
a -44-4-44-4-44-4-5456---------------------------------------|
d -44-4-44-4-44-4-5456---------------------------------------|

e -----------------------------------------------------------|
b -----------------------------------------------------------|
g -----------------------------------------------------------|
d -77777777-44444444-33333333-434346-------------------------|
a -77777777-44444444-33333333-434346-------------------------|
d -77777777-44444444-33333333-434346-------------------------|

e -----------------------------------------------------------|
b -----------------------------------------------------------|
g -----------------------------------------------------------|
d -77777777-44444444-33-3-3-3-434346-------------------------|
a -77777777-44444444-33-3-3-3-434346-------------------------|
d -77777777-44444444-33-3-3-3-434346-------------------------|

e -----------------------------------------------------------|
b -----------------------------------------------------------|
g -----------------------------------------------------------|
d --4-4-4-7--4-4-4-5-----------------------------------------| x 2
a --4-4-4-7--4-4-4-5-----------------------------------------|
d --4-4-4-7--4-4-4-5-----------------------------------------|

then ending but i cant play that part sorry
Comments