Breaking Benjamin - Blow Me Away Chords & Tabs

 

Blow Me Away Chords & Tabs

Breaking Benjamin Chords & Tabs

Version: 3 Type: Tab 0 ratings
1 star 2 stars 3 stars 4 stars 5 stars
comments

Blow Me Away Tab

-------------------------------------------------------------------------------
			     blow me away - breaking Benjamin
-------------------------------------------------------------------------------
Tabbed by:basher
Email:rock-on-basher@hotmail.com

Tuning:drop d

e|---------------------------------------------------------------------------|
B|---------------------------------------------------------------------------|
G|---7-7-7---7-7-7-------------7-7-7---7-7-7---------------------------------|
D|-0-0-0-0-0-0-0-0---0-10----0-0-0-0-0-0-0-0-3-2----0------------------------|
A|-0-5-5-5-0-5-5-5---0-10----0-5-5-5-0-5-5-5-3-2----0------------------------|
d|-0-------0---------0-10----0-------0-------3-2----0------------------------|
  |         x3          |
e|---------------------------------------------------------------------------|
B|---------------------------------------------------------------------------|
G|----------------------14--9/11-7-------------------------------------------|
D|-88888888-1010101010--------------88888888-1010101010----------------------|
A|-88888888-1010101010--12--7/9--5--88888888-1010101010----------------------|
d|-88888888-1010101010--------------88888888-1010101010----------------------|
                        |   x2   |
e|---------------------------------------------------------------------------|
B|---------------------------------------------------------------------------|
G|-----------------------------------------------7-7-7--------7-7-7----------|
D|-0--7-8-5--0--7-8-10---0--7-8-5--0--7-8-10---0-0-0-0-0-10-0-0-0-0-3-2------|
A|-0--7-8-5--0--7-8-10---0--7-8-5--0--7-8-10---0-5-5-5-0-10-0-5-5-5-3-2------|
d|-0--7-8-5--0--7-8-10---0--7-8-5--0--7-8-10---0-------0-10-0-------3-2------|
[ Tab from: http://www.guitartabs.cc/tabs/b/breaking_benjamin/blow_me_away_tab_ver_3.html ]
e|------------------------------------------------------------------------------|
B|------------------------------------------------------------------------------|
G|-----------------------------14--9/11-7---------------------------------------|
D|-0-0--88888888---1010101010-------------88888888-1010101010-------------------|
A|-0-0--88888888---1010101010--12--7/9--5-88888888-1010101010-------------------|
d|-0-0--88888888---1010101010-------------88888888-1010101010-------------------|
                               |   x2   |
e|---------------------------------------------------------------------------|
B|---------------------------------------------------------------------------|
G|---------------------------------------------------------------------------|
D|-0--7-8-5--0--7-8-10---0--7-8-5--0--7-8-10---88888888-1010101010-----------|
A|-0--7-8-5--0--7-8-10---0--7-8-5--0--7-8-10---88888888-1010101010-----------|
d|-0--7-8-5--0--7-8-10---0--7-8-5--0--7-8-10---88888888-1010101010-----------|

e|---------------------------------------------------------------------------|
B|---------------------------------------------------------------------------|
G|-------99-77-----------------------88-77-----------------------------------|
D|----77-------77-----------------77-------77--------------------------------|
A|-55-------------88-1010--55--55----------------88-1010-55------------------|
d|---------------------------------------------------------------------------|

e|-------------------------------------------------------------17+\0+--|
B|---------------------------------------------------------------------|
G|---------------------------------------------------------------------|
D|----------------------------------8\1--00-0-000-0-00-0-000-6---------|
A|----00-66-55-00-66-55----00-66-55-8\1--00-0-000-0-00-0-000-6---------|
d|-00-------------------00----------8\1--00-0-000-0-00-0-000-6---------|
  |                x2                 |           x2         |
e|-------------------------------------------------------------------------|
B|-------------------------------------------------------------------------|
G|-------------------------------------------------------------------------|
D|-0-7-8-5--0-7-8-10--0-7-8-5--0-7-8-15-0-000110-000110-6-0-000110-000110--|
A|-0-7-8-5--0-7-8-10--0-7-8-5--0-7-8-15-0-000110-000110-6-0-000110-000110--|
d|-0-7-8-5--0-7-8-10--0-7-8-5--0-7-8-15-0-000110-000110-6-0-000110-000110--|

e|---------------------------------------------------------------------------|
B|---------------------------------------------------------------------------|
G|---------------------------------------------------------------------------|
D|---------------------------------------------------------------------------|
A|---------------------------------------------------------------------------|
d|---------------------------------------------------------------------------|

| +  harmonics
| /  slide up
| \  slide down
 it took me about 3 hours to write this i hope my time didn't go in vane =)
===============================================================================
Comments