Breaking Benjamin - Beleive Chords & Tabs

 

Beleive Chords & Tabs

Breaking Benjamin Chords & Tabs

Version: 1 Type: Bass Tab 0 ratings
1 star 2 stars 3 stars 4 stars 5 stars
comments

Beleive Bass Tab

Band: Breaking Benjamin
Song: Beleive
Album: We Are Not Alone
Track #: 10
Bassist: Markus James

Tuned in Drop C, like the rest of the new album.

Intro/Main Riff: (I'm not sure what the two notes are in the "()"s, but thats what i play.)
F|---------------------------------------------------------------------------------------------------------|
C|-4-------------34------------(42)------------------------------------------------------------------------|
G|---------------------------------------------------------------------------------------------------------|
C|---4-2h4-4-4-42---4-2h4-4-4-2-----x4-and-on-the-3rd-time,-u-start-playing an octave higher if u want to--|

Verses:
F|---------------------------------------------------------------------------|
C|---------------------------------------------------------------------------|
G|---------------------------------------------------------------------------|
C|-2h4--222h4--222h4--222h4-5p4-2h4--222h4--222h4-222~-3~...-----------------|

And the pick up to the chorus is:
Low C|-2~-/5!-

Chorus: (Listen for the timing, cuz its not right on the beat)
F|-------------------------------------------------------------------------|
C|-------------------------------------------------------------------------|
G|-------------------------------------------------------------------------|
C|-4-2-5-4-2-4-2-4-5-4-7--4-2-5-4-2-4-2-4/7-7------------------------------|

Bridge Thingy:
F|---------------------------------------------|
C|----------------------42---------------------|
G|-------------------------4p3p2---------------|
C|-2h4--222h4--222h4--22---------5p4-----------|

Verse
[ Tab from: http://www.guitartabs.cc/tabs/b/breaking_benjamin/beleive_btab.html ]
Chorus 2&3: (Its exactly the same except for the little pop he puts in there)
F|-------------------------------------------------------------------------|
C|-------------------------------------------------------------------------|
G|------------------------------------------0*-----------------------------|
C|-4-2-5-4-2-4-2-4-5-4-7--4-2-5-4-2-4-2-4-2---2h4-x2-----------------------|

Interlude Part 1:
F|--------------------------------------------------------------------------|
C|--------------------------------------------------------------------------|
G|-2-/4--/5-/7\2-/4-/5-/7\--------------------------------------------------|
C|--------------------------------------------------------------------------|x2

Interlude Part 2:
F|-------------------------------------------------------------------------|
C|-------------------------------------------------------------------------|
G|-------------------------------------------------------------------------|
C|-4~----4-2-5-4-2-4-2-4-5-4-7--4-2-5-4-2-4-2-4/77-------------------------|

Play the chorus for a bit, then play the main riff... and then...

Ending:
Low C|---4\2/4~----

And thats it!

Lyrics:

Don't tread the water, just stay still. I'll not be bothered, by you until.
I'm picking sides and pullling the strings.
I'm living lies and shedding the skin.
I'm open wide and letting you in.
I'm wronging rights, beleive.

I dont care what you want, i just want mine.  Shut Up. Smart little bitch, i
dont need lies.  I dont care what you want, i just want mine.  Get up.  Force
it to fit, confide inside.

Don't pull me under, into the deep.  I often wonder, how it should be.
I'm picking sides, and pulling the strings.
I'm living lies and shedding the skin.
I'm open wide and letting you in.
I'm wronging rights, beleive.

I dont care what you want, i just want mine.  Shut Up. Smart little bitch,
i dont need lies.  I dont care what you want, i just want mine.  Get up.
Force it to fit, confide inside.

I dont care what you want, i  just want mine.  I dont care what you want i just WANT MINE!

Chorus a couple of times.

My... Dead... Eyes...
Comments