Breaking Benjamin - Away Chords & Tabs

 

Away Chords & Tabs

Breaking Benjamin Chords & Tabs

Version: 2 Type: Tab 0 ratings
1 star 2 stars 3 stars 4 stars 5 stars
comments

Away Tab

   
Song: Away
Artist: Breaking Benjamin
Album: We Are Not Alone
Transcribed by: Tyler Snedigar
Tuning: Db,Ab,Db,Gb,Bb,Eb
Legend:  -x......muted string
         -p......pull off
         -<#>....let the note ring
         -Pm.....Palm Mute
         -h......hammer on
         -/slide up
         -\slide down
Intro
(0:01 - 0:21)
||---------------------------------------------------------------------|
||---------------------------------------------------------------------|
||---------------------------------------------------------------------|
||--222-555-222-555-2-0--222-----222-----2-0--222-----222-----2-0--222-|
||--222-----222-----2-0--222-555-222-555-2-0--222-333-222-333-2-0--222-|
||--222-----222-----2-0--222-----222-----2-0--222-----222-----2-0--222-|

Intro (cont.)		x2
|----------------------|
|----------------------|
|----------------------|
|-----222------2-0-----|
|-555-222-555--2-0-----|
|-----222------2-0-----|


Verse
(0:42 - 0:52)
|----------------------------------------------------------------------|
|----------------------------------------------------------------------|
|----------------------------------------------------------------------|
|--222-555-222-555-2-0--222-----222-----2-0--222-----222-----2-0--222--|
|--222-----222-----2-0--222-555-222-555-2-0--222-333-222-333-2-0--222--|
|--222-----222-----2-0--222-----222-----2-0--222-----222-----2-0--222--|
Pm ...     ...          ...     ...          ...     ...          ...
[ Tab from: http://www.guitartabs.cc/tabs/b/breaking_benjamin/away_tab_ver_2.html ]
Verse (cont.)
|----------------------|
|----------------------|
|----------------------|
|-----222------2-0-----|
|-555-222-555--2-0-----|
|-----222------2-0-----|
Pm    ...

Chorus
(0:53 - 1:13)      x4
|------------------|
|------------------|
|------------------|
|-9-<10>-----5-4---|
|-9-<10>-----5-4---|
|-9-<10>-----5-4---|
  ^don't play this not the first time

Verse
Chorus

Bridge
(2:14 - 2:30)
|--------------------------------------------------------------------|
|--------------------------------------------------------------------|
|--------------------------------------------------------------------|
|------------2-xxx-------------5-0-----------2-xxx-------------5-7---|
|------------2-xxx-------------5-0-----------2-xxx-------------5-7---|
|--2p0h2h5-0-2-xxx-2-2p0h2h5-0-5-0-2p0h2h5-0-2-xxx-2-2p0h2h5-0-5-7---|

Bridge (cont.)
|---------------------------------|
|---------------------------------|
|---------------------------------|
|-----------2-xxx-------------5-0-|
|-----------2-xxx-------------5-0-|
|-2p0h2h5-0-2-xxx-2-2p0h2h5-0-5-0-|

Chorus

Outro (2:51 - 3:12)
|----------------------------------------------------------------------|
|----------------------------------------------------------------------|
|----------------------------------------------------------------------|
|-2-5-0-10--555444-1h2\-2-5-0-10--555444-1h2\-2-5-0-10--555444-1h2\----|
|-2-5-0-10--555444-1h2\-2-5-0-10--555444-1h2\-2-5-0-10--555444-1h2\----|
|-2-5-0-10--555444-1h2\-2-5-0-10--555444-1h2\-2-5-0-10--555444-1h2\----|

Outro (cont.)
|---------------------------||
|---------------------------||
|---------------------------||
|-xx-2-5-0-10--555444-1h2\--||
|-xx-2-5-0-10--555444-1h2\--||
|-xx-2-5-0-10--555444-1h2\--||

END

If you have any questions or corrections, please email them to me at 
  \m/ rock on.
Comments