Breaking Benjamin - Anthem Of The Angels Chords & Tabs

 

Anthem Of The Angels Chords & Tabs

Breaking Benjamin Chords & Tabs

Version: 2 Type: Bass Tab 0 ratings
1 star 2 stars 3 stars 4 stars 5 stars
comments

Anthem Of The Angels Bass Tab

This is my first time tabbing so don't judge me too harshly.
Just to say, where I've put colons, it means you should repeat
inside the coloned area, if no indication is given how many
times to repeat, then only repeat once.


Intro

G|------------------------------------|-----------------------------------|
D|------------------------------------|-----------------------------------|
A|------------------------------------|-----------------------------------|
E|---------------------0-0---3-2---0--|-------------------0-0---3-2-3-5---|
B|---1-1-1----3---3--------------3----|--1-1-1----3---3-------------------|

G|------------------------------------|-----------------------------------|
D|------------------------------------|-----------------------------------|
A|------------------------------------|-----------------------------------|
E|---------------------0-0---3-2---0--|-------------------0-0---3-2-------|
B|---1-1-1----3---3--------------3----|--1-1-1----3---3-------------3-----|



Verse
                        x7
G|:---------------------:|---------------------|
D|:---------------------:|---------------------|
A|:---------------------:|---------------------|
E|:---------------------:|---------------------|
B|:----1----3----5------:|----1----3----5----3-|



Chorus

G|------------------|--------------------|
D|------------------|--------------------|
A|------------------|--------------------|
E|--3--3-3----3-2---|-------------3-2----|
B|----------------3-|--0--0-0---------3--|

G|--------------------|--------------------|
D|--------------------|--------------------|
A|--------------------|--------------------|
E|-0---0--0-----------|--------------------|
B|----------3-3--3----|--1----1---1--1---3-|


 Verse
                       x9
G|:---------------------:|---------------------|
D|:---------------------:|---------------------|
A|:---------------------:|---------------------|
E|:---------------------:|------------------2--|
B|:----1----3----5------:|----1----3----5------|


[ Tab from: http://www.guitartabs.cc/tabs/b/breaking_benjamin/anthem_of_the_angels_btab_ver_2.html ]
Chorus x2
                                                                        
G|--------------------|---------------------|
D|--------------------|---------------------|
A|--------------------|---------------------|
E|--3--3-3-----3-2----|-------------3-2---0-|
B|-----------3-----3--|--0--0-0--0------3---|

G|--------------------|--------------------|
D|--------------------|--------------------|
A|--------------------|--------------------|
E|-0---0--0-----------|--------------------|
B|----------3-3--3----|--1----1---1--1---3-|


Bridge

G|------------------|---------------------------|
D|------------------|---------------------------|
A|------------------|---------------------------|
E|--0---2---3-------|---------------------3-2---|
B|--------------3---|--1-1-1----3-1--1-1------3-|

G|------------------|---------------------------|
D|------------------|---------------------------|
A|------------------|---------------------------|
E|--0---2---3-------|---------------------------|
B|--------------3---|--1-1-1----3-1--1-1----3---|

G|------------------|---------------------------|
D|------------------|---------------------------|
A|------------------|---------------------------|
E|--0---2---3-------|---------------------0-2---|
B|--------------3---|--1-1-1----3-1--1-1--------|

G|------------------|---------------------------|---|
D|------------------|---------------------------|---|
A|------------------|---------------------------|---|
E|--0---2---3-------|---------------------------|-3-|
B|--------------3---|--1-1-1----3-1--1-1----3---|---|



Chorus

G|------|--------------------|--------------------|
D|------|--------------------|--------------------|
A|------|--------------------|--------------------|
E|------|-0---0--0-----------|--------------------|
B|--15/0|----------3-3--3----|--1----1---1--1---3-|

G|--------------------|---------------------|
D|--------------------|---------------------|
A|--------------------|---------------------|
E|--3--3-3-----3-2----|-------------3-2---0-|
B|-----------3-----3--|--0--0-0--0------3---|

G|:--------------------|--------------------:|
D|:--------------------|--------------------:|
A|:--------------------|--------------------:|
E|:-0---0--0-----------|--------------------:|
B|:----------3-3--3----|--1----1---1--1---3-:|

G|------------|---|
D|------------|---|
A|------------|---|
E|--0---------|---|
B|--------3---|-1-|
Comments