Breaking Benjamin - Anthem Of The Angels Chords & Tabs

 

Anthem Of The Angels Chords & Tabs

Breaking Benjamin Chords & Tabs

Version: 1 Type: Bass Tab 0 ratings
1 star 2 stars 3 stars 4 stars 5 stars
comments

Anthem Of The Angels Bass Tab

Intro (0:08)
  s s e+ e s s s e s s s s   s s e+ e s s s e s s s s
F|--------------------------|--------------------------|
C|--------------------------|--------------------------|
G|--------------------------|--------------------------|
C|-0-0-0--2-2-2-4-4-7-6-4-6-|-0-0-0--2-2-2-4-4-7-6-7-9-|

  s s e+ e s s s e s s s s   s s e+ e s s s e s s e
|--------------------------|------------------------|
|--------------------------|------------------------|
|--------------------------|------------------------|
|-0-0-0--2-2-2-4-4-7-6-4-6-|-0-0-0--2-2-2-4-4-7-6-4-|

Verse (0:24)
  q  q  h    q  q  h    q  q  h    q  q  h
|----------|----------|----------|----------|
|----------|----------|----------|----------|
|----------|----------|----------|----------|
|-0--2--4--|-0--2--4--|-0--2--4--|-0--2--4--|

  q  q  h    q  q  h    q  q  h    q  q  q+ e
|----------|----------|----------|------------|
|----------|----------|----------|------------|
|----------|----------|----------|------------|
|-0--2--4--|-0--2--4--|-0--2--4--|-0--2--4--6-|

Chorus (0:57)
  h  e s e s s s   h  e s e s s s   q e  s e  s e+ s e    q e+ s s s e  s e+
|----------------|----------------|---------------------|--------------------|
|--------7-6-5-3-|----------------|---------------------|--------------------|
|------7---------|-4--4-6---------|---------------------|--------------------|
|-7--7-----------|--------4-6-0-3-|-4-4--4-4--2-2--2-2--|-0-0--0-0-0-0--0-2--|

Verse 2 (1:14)
  q  q  h    q  q  h    q  q  h    q  q  h    q  q  h
|----------|----------|----------|----------|----------|
|----------|----------|----------|----------|----------|
|----------|----------|----------|----------|----------|
|-0--2--4--|-0--2--4--|-0--2--4--|-0--2--4--|-0--2--4--|

  q  q  h    q  q  h    q  q  h    q  q  h    q  q  q+ e
|----------|----------|----------|----------|------------|
|----------|----------|----------|----------|------------|
|----------|----------|----------|----------|------------|
|-0--2--4--|-0--2--4--|-0--2--4--|-0--2--4--|-0--2--4--6-|
[ Tab from: http://www.guitartabs.cc/tabs/b/breaking_benjamin/anthem_of_the_angels_btab.html ]
Chorus 2 (1:56)
  q  s s s e s s s s s e  [q  e+] s e s e s s s   q e  s e  s e+ s e    q e+ s s s e  s e+
|------------------------|----------------------|---------------------|--------------------|
|--------7-7-6-----7-6---|----------6---6-------|---------------------|--------------------|
|------7-------7-4-----7-|-4-(4)--4---4---4-----|---------------------|--------------------|
|-7--7-------------------|------------------6-5-|-4-4--4-4--2-2--2-2--|-0-0--0-0-0-0--0-2--|

  q  s s s e t t s s s s s s  [q  e+] s s s s e s s s   q e  s e  s e+ s e   q e+ s s s e  s e+
|----------------------------|------------------------|---------------------|--------------------|
|--------7-7-7h8p7---7-8-6---|----------6-6---6-------|---------------------|--------------------|
|------7-----------7-------7-|-4-(4)--4-----4---4-----|---------------------|--------------------|
|-7--7-----------------------|--------------------0-3-|-4-4--4-4--2-2--2-2--|-0-0--0-0-0-0--0-2--|


Interlude (2:30)
  q q q q   s q+ s e  s s s s s s   q q q q   s q+ s e  s s s s s s
|---------|-----------------------|---------|-----------------------|
|---------|-----------------------|---------|-----------------------|
|---------|-----------------------|---------|-----------------------|
|-4-6-7-2-|-2-0--2-0--0-0-2-0-2-3-|-4-6-7-2-|-2-0--2-0--0-0-2-0-2-3-|

  q q q q   s q+ s e  s s s s s s   q q e+ t t s s e   s q+ s e  s s s s e
|---------|-----------------------|------------------|---------------------|
|---------|-----------------------|--------8h9p8-6-2-|---------------------|
|---------|-----------------------|------------------|---------------------|
|-4-6-7-2-|-2-0--2-0--0-0-2-0-2-3-|-4-6-7------------|-2-0--2-0--0-0-0-0-2-|

Chorus 3 (3:03)
  w   h+ q     q e+ s s  s e+ s e    q e+ s s s e  s e+
|---|--------|---------------------|--------------------|
|---|--------|---------------------|--------------------|
|---|--------|---------------------|--------------------|
|-7-|-11-11\-|-4-4--4-4--2-2--2-2--|-0-0--0-0-0-0--0-2--|

  q  s s s e s s s s s e  [q  e+] s s s s e s s s   q e  s e  s e+ s e    q e+ s s s e  s e+
|------------------------|------------------------|---------------------|--------------------|
|--------7-7-6-----7-6---|----------6-6---6-------|---------------------|--------------------|
|------7-------7-4-----7-|-4-(4)--4-----4---4-----|---------------------|--------------------|
|-7--7-------------------|--------------------0-3-|-4-4--4-4--2-2--2-2--|-0-0--0-0-0-0--0-2--|


Outro (3:36)
  q e  s e  s e+ s e    q e+ s s s e  s e+   h  e+ s s e+  w
|---------------------|--------------------|-------------|---|
|---------------------|--------------------|-------------|---|
|---------------------|--------------------|-------------|---|
|-4-4--4-4--2-2--2-2--|-0-0--0-0-0-0--0-2--|-4--2--r-2h4-|-0-|

Tabbed by: Dave Vucko
Comments