Breakdown Of Sanity - Infest Chords & Tabs

 

Infest Chords & Tabs

Breakdown Of Sanity Chords & Tabs

Version: 1 Type: Tab 0 ratings
1 star 2 stars 3 stars 4 stars 5 stars
comments

Infest Tab

   
BREAKDOWN OF SANITY

INFEST SOLO

A-E-A-D-F#-B

proof this tab is accurate

http://youtu.be/ZQ272fpp7Y0

TABBED BY andherembrace


1:35


-----------------------------------------------------------------------|
--------------------___------------------------------___---------------|
-9~---9~-----------/   \-------------12-9~----------/   \--------------|
-----------12-10--9--10-9---------10--------12-10--9--10-9-------------|
--------------------------12---12--------------------------10~--7~-----|
--------------------------------------------------------------------0-v|


1:43

   )~~
-22-----------------20----------------------------19----------------|
--------------20-22----22-22-22-22-22-22-22-22-22----22-20-22-22-22-|
--------------------------------------------------------------------|
--------------------------------------------------------------------|
--------------------------------------------------------------------|
--------------------------------------------------------------------|

1:45

-T---^----T---^----T---^----T---^----T---^----T---^----T---^----T---^--|
22-18-20-22-20-18-20-17-18-20-18-17-18-15-17-18-17-15-17-13-15-17-15-13|
-----------------------------------------------------------------------|
-----------------------------------------------------------------------|
-----------------------------------------------------------------------|
-----------------------------------------------------------------------|

1:47
[ Tab from: http://www.guitartabs.cc/tabs/b/breakdown_of_sanity/infest_tab.html ]
-----------------------------------------------------------------------|
-T---^----T---^----T---^----T---^----T---^----T---^----T---^----T---^--|
19-16-17-19-17-16-17-14-16-17-16-14-16-12-14-16-14-12-14-10-12-14-12-10|
-----------------------------------------------------------------------|
-----------------------------------------------------------------------|
-----------------------------------------------------------------------|

1:48

--T^---T^---T^---T^---T^---T^---T^---T^---|
-12-5-12-5-12-5-12-5-10-5-10-5-12-5-12-5--|
------------------------------------------|
------------------------------------------|
------------------------------------------|
------------------------------------------|
                                             
--T^---T^---T^---T^---T^---T^---T^---T^---|
-13-5-13-5-12-5-12-5-13-5-13-5-15-5-15-5/-|
------------------------------------------|
------------------------------------------|
------------------------------------------|
------------------------------------------|

1:52

       __                      )(^     )
--T---/  \--)-T^(-------^----14---12-13-~---|
-17-15-13-15-18--15~-[15-13]----------------|
--------------------------------------------|
--------------------------------------------|
--------------------------------------------|
--------------------------------------------|
  
1:56
                                   _
   )     (   )(            ^   T  / \
-17--1717--17--\----------7-8-12-8-7-----T^----T^----T^----|
-20--2020--20----------10------------10-12-10-13-10-15-10--|
---------------------9-------------------------------------|
-------------------10--------------------------------------|
-----------------12----------------------------------------|
-----------------------------------------------------------|

1:59
    ___      ___      ___
 T /   \   T/   \  T /   \
-12-8-5-8-17-8-5-8-15-8-5-8--T---|
-----------------------------12--|
---------------------------------|
---------------------------------|
---------------------------------|
---------------------------------|
Comments